PrimaNota.ru - самый крупный в мире бесплатный архив песенных текстов, аккордов, табулатур и нот


Misc Unsigned Bands - Across The Atlantic - I Swear - таба, видео

Регистрация Запомнить меня
Войти через:  Facebook Google Twitter Vk Yandex Mail.ru

Misc Unsigned Bands - Across The Atlantic - I Swear - таба, видео

Печатать
Просмотров: 54
Уроки эстрадного вокала в Санкт-Петербурге
"I Swear"
By: Across the Atlantic

Intro:

Guitar 1: Repeat 2x
e|--------------------------------------------|
B|--------------------------------------------|
G|--------------------------------------------|
D|-----------------------------9-7-9-7-12-9-7-|
A|---------------9-7-9-7-12-9-7---------------|
E|-9-7-9-7-12-9-7-----------------------------|

Then add:
e|--------|
B|--------|
G|-12-9-7-|
D|--------|
A|--------|
E|--------|

Guitar 2: Repeat 2x
Emaj7   (7x)
Amaj7   (7x)
Dmaj7   (7x)

Then add:
G#  (3x)


Verse 1: (Guitar 1 & 2)
Emaj7                          Amaj7                      Dmaj7    
It's the simplest thing that I could probably say, but he doesn't know I 
           Emaj7                    Amaj7                        Dmaj7 
exist, no, he doesn't know a thing about me. So, I'll sit on the sidelines 
                   Emaj7                           Amaj7
and sing all of my lines and hope everything turns out the way I want it to 
Dmaj7 (hold)
be.

Pre-Chorus: (Guitar 1 & 2: strum each chord once)
    G#          F#        F      F#     G#        F#            F  F# 
So, hey, hey to you. I've had my eye on you for a while now and I, I must 
G#
say....

Chorus: (Guitar 1: Guitar 1 Intro pattern)
Guitar 2:
Emaj7                       Amaj7                         Dmaj7             
Oh, I want you, I need you, and I can't live without you. Oh, I want you, I
          Emaj7                         Amaj7                        Dmaj7  
need you, and I can't live without you. Yes, I want you, I need you, I
                         G#
cannot live without you. Only you....

Verse 2: (Guitar 1 & 2)
Emaj7                          Amaj7                      Dmaj7
It's the simplest thing that I could probably say, but he doesn't know that 
            Emaj7                    Amaj7                       Dmaj7
I care, no, he doesn't know anything about me. And you're the reason my 
                        Emaj7                      Amaj7                  
heart beats, and the reason that I breathe and I only get by on the 
          Dmaj7                         Dmaj7 (hold)
knowledge that you'll be there so I can stare.

{PRE-CHORUS}

{CHORUS}

Bridge Solo:

Guitar 1: Repeat 2x
e|-----------------------------9-7-9-7-12-9-7-|
B|---------------9-7-9-7-12-9-7---------------|
G|-9-7-9-7-12-9-7-----------------------------|
D|--------------------------------------------|
A|--------------------------------------------|
E|--------------------------------------------|

Then add:
e|--------|
B|--------|
G|--------|
D|-12-9-7-|
A|-12-9-7-|
E|--------|

Guitar 2: Repeat 2x
e|-----------0-0-0---9-7-9-7-12-9-7-|
B|--0-0-0---9-9-9-------------------|
G|-9-9-9-----------0----------------|
D|--------0-------------------------|
A|----------------------------------|
E|----------------------------------|

Then add: 
e|--------|
B|--------|
G|--------|
D|-12-9-7-|
A|-12-9-7-|
E|--------|

{CHORUS}

|-----------------------------------------------------------------------------------------------|
|-----------------------------------------------end---------------------------------------------|
|-----------------------------------------------------------------------------------------------|
Добавлено: 08.01.2014
Другие материалы по этой песне:
  • Аккорды и текст

Страница создана 08.01.2014
http://primanota.ru/misc-unsigned-bands/across-the-atlantic-i-swear-chords.htm
Привет, Гость.
Предлагаем пройти революционный курс по гитаре.
Подарок от PrimaNota.Ru, забирай!