PrimaNota.ru - самый крупный в мире бесплатный архив песенных текстов, аккордов, табулатур и нот


Misc Unsigned Bands - Aftermath - Soul Sucker - таба

Регистрация Запомнить меня
Войти через:  Facebook Google Twitter Vk Yandex Mail.ru

Misc Unsigned Bands - Aftermath - Soul Sucker - таба

Печатать
Просмотров: 53
one of the more well known songs from an album i hope to put out. Please rate!

I tune to D,A,D,G,A#,d but drop D will be fine since the top 2 strings are not used.
----------------------------------------------------------------------------
INTRO

[GTR 1]
|-------------------------------------------------------------------------|
|-------------------------------------------------------------------------|
|-------------------------------------------------------------------------|
|---------------0---------------0---------------0-------------0-----0---0-|
|------------0---------------0---------------0--------------0-----0-------|
|-0-------0-------1-------1-------3-------3-------1-------1-----3-----1---|
[GTR 2] OPEN CHUGG AT THESE POINTS                        | | | | | | | |

PLAY [GTR 1] AND [GTR 2] TWICE

----------------------------------------------------------------------------
MAIN RIFF

[GTR 1]
|-------------------------------------------------|
|-------------------------------------------------|
|-------------------------------------------------|
|-0---0-------------------0-0-0-0-----------------|
|-0---0-------------------0-0-0-0-----------------|
|-0---0---3p2-0h5---0h2h3-0-0-0-0-3p2-0h6---0h2h3-|
PM
Добавлено: 21.10.2013
Другие материалы по этой песне:
  • Аккорды и текст

Страница создана 21.10.2013
http://primanota.ru/misc-unsigned-bands/aftermath-soul-sucker-chords.htm
Привет, Гость.
Предлагаем пройти революционный курс по гитаре.
Подарок от PrimaNota.Ru, забирай!