PrimaNota.ru - самый крупный в мире бесплатный архив песенных текстов, аккордов, табулатур и нот


Misc Unsigned Bands - Alkehol - Dej Mi Svou Dui - таба

Регистрация Запомнить меня
Войти через:  Facebook Google Twitter Vk Yandex Mail.ru

Misc Unsigned Bands - Alkehol - Dej Mi Svou Dui - таба

Печатать
Просмотров: 82
Уроки эстрадного вокала в Санкт-Петербурге
-----------------------------------------------------------------------------
                         Alkehol - Dej mi svou Duši
-----------------------------------------------------------------------------

Tabbed by: Metalrock4ever

Tuning: CGCFAD

Intro:
D|-8+~-|
A|-----|
F|-5+~-|  Play one or the other
C|-----|
G|-----|
C|-----|

Solo Part:
D|---------------------------------------------|
A|---------------------------------------------|
F|---------------------------------------------|
C|---------------------------------------------|
G|-10-6~-6-10-11-11-10-6~-10-6~-6-10-11-11-10~-|
C|---------------------------------------------|

D|---------------------------------|
A|---------------------------------|
F|---------------------------------|
C|---------------------------------|
G|-10-6~-6-10-11-11-10-6~-8~-8-5---|
C|-------------------------------8-|

Rhythm Guitar:
(Not sure whether the guitar plays here. Here it is anyway)
D|-------------------------|
A|-------------------------|
F|-------------------------|
C|-10101010-6666-131313-12-|  x2
G|-10101010-6666-131313-12-|
C|-10101010-6666-131313-12-|

D|-----------------------------|
A|-----------------------------|
F|-----------------------------|
C|-10101010-6666-13131312-8888-|
G|-10101010-6666-13131312-8888-| <- These are 10s at the beginning
C|-10101010-6666-13131312-8888-|    and then 13's and 12's


Verse:
(Wait for a couple of bars. Play natural harmonics before playing.)
D|----------------------------|
A|----------------------------|
F|----------------------------|
C|----------------------------|  x2
G|-6x6x6x6x-11x11x10x10x-6x5x-|
C|----------------------------|

D|-------------------------------------|
A|-------------------------------------|
F|-------------------------------------|
C|-------------------------------------|
G|-6x6x6x6x-11x11x10x10x-6x5x-8x8x8x8x-|
C|-------------------------------------|

or...
D|--------------------------------------|
A|--------------------------------------|
F|--------------------------------------|
C|--------------------------------------|
G|-6x6x6x6x-11x11x10x10x-6x5x-8~-8-5----|
C|-----------------------------------8~-|

Chorus:
D|----------------|
A|----------------|  x2
F|----------------|
C|-3333-1111-6665-|  <- They are 11's
G|-3333-1111-6665-|
C|-3333-1111-6665-| 

D|---------------------|
A|---------------------| 
F|---------------------|
C|-3333-1111-6665-8888-|  
G|-3333-1111-6665-8888-| 
C|-3333-1111-6665-8888-| 

D|----------------|
A|----------------|  x2
F|----------------|
C|-3333-1111-6665-|  <- They are 11's
G|-3333-1111-6665-|
C|-3333-1111-6665-| 

D|---------------------|
A|---------------------| 
F|---------------------|
C|-3333-1111-6665-8888-|  
G|-3333-1111-6665-8888-| 
C|-3333-1111-6665-8888-| 

Solo Part:
D|-------------------------------------|
A|-5~-6~------5~-6~------5~-6~---------|
F|-------6~-5-------6~-5-------6~-5-8~-|
C|-------------------------------------|  x4
G|-------------------------------------|
C|-------------------------------------|


Verse 2:
(Wait for a couple of bars. Play natural harmonics before playing.)
D|----------------------------|
A|----------------------------|
F|----------------------------|
C|----------------------------|  x2
G|-6x6x6x6x-11x11x10x10x-6x5x-|
C|----------------------------|

D|-------------------------------------|
A|-------------------------------------|
F|-------------------------------------|
C|-------------------------------------|
G|-6x6x6x6x-11x11x10x10x-6x5x-8x8x8x8x-|
C|-------------------------------------|

or...
D|--------------------------------------|
A|--------------------------------------|
F|--------------------------------------|
C|--------------------------------------|
G|-6x6x6x6x-11x11x10x10x-6x5x-8~-8-5----|
C|-----------------------------------8~-|


Chorus 2:
D|----------------|
A|----------------|  x2
F|----------------|
C|-3333-1111-6665-|  <- They are 11's
G|-3333-1111-6665-|
C|-3333-1111-6665-| 

D|---------------------|
A|---------------------| 
F|---------------------|
C|-3333-1111-6665-8888-|  
G|-3333-1111-6665-8888-| 
C|-3333-1111-6665-8888-| 

D|----------------|
A|----------------|  x2
F|----------------|
C|-3333-1111-6665-|  <- They are 11's
G|-3333-1111-6665-|
C|-3333-1111-6665-| 

D|---------------------|
A|---------------------| 
F|---------------------|
C|-3333-1111-6665-8888-|  
G|-3333-1111-6665-8888-| 
C|-3333-1111-6665-8888-| 

Solo Part:
D|-------------------------------------|
A|-------------------------------------|
F|-5~-6~------5~-6~------5~-6~---------|
C|-------6~-5-------6~-5-------6~-5-8~-|
G|-------------------------------------|  x4
C|-------------------------------------|


Bridge:
D|------------------------------------------------|
A|------------------------------------------------|
F|------------------------------------------------|
C|-10101010-3333-1111-10101010-11111111-6666-8888-| 
G|-10101010-3333-1111-10101010-11111111-6666-8888-|
C|-10101010-3333-1111-10101010-11111111-6666-8888-|
    ^              ^      ^       ^
   10's           1's    10's    11's 

Solo Part:
D|---------------------------------------------------------------|
A|---------------------------------------------------------------|
F|---------------------------------------------------------------|
C|------------------------------------10~-10-11~-13-11-10--------|
G|-10-10-10-8-10-11-11-8~-8--10~-8-10---------------------11-----|
C|-----------------------------------------------------------13~-|

D|---------------|
A|---------------|
F|---------------|
C|---------------|
G|-13~-13-10-----|
C|-----------13~-|


Pre-Chorus:
D|--------------------------|
A|--------------------------|
F|--------------------------|
C|-3x3x3x3x-11x11x-6x6x6x5x-|  x2
G|-3x3x3x3x-11x11x-6x6x6x5x-|
C|-3x3x3x3x-11x11x-6x6x6x5x-|

D|-----------------------------------|
A|-----------------------------------|
F|-----------------------------------|
C|-3x3x3x3x-11x11x-6x6x6x5x-7x7x7x7x-|
G|-3x3x3x3x-11x11x-6x6x6x5x-7x7x7x7x-|
C|-3x3x3x3x-11x11x-6x6x6x5x-7x7x7x7x-|

Solo Part:
D|----------------------|
A|----------------------|
F|-5~-6~----------------|
C|-------6~-5-8~-8-5----|
G|-------------------6~-|  
C|----------------------|


Final Chorus:
D|----------------|
A|----------------|  x2
F|----------------|
C|-3333-1111-6665-|  <- They are 11's
G|-3333-1111-6665-|
C|-3333-1111-6665-| 

D|---------------------|
A|---------------------| 
F|---------------------|
C|-3333-1111-6665-8888-|  
G|-3333-1111-6665-8888-| 
C|-3333-1111-6665-8888-| 

Solo Part:
D|---------------------------------------------|
A|---------------------------------------------|
F|---------------------------------------------|
C|-10-6~-6-10-11-11-10-6~-10-6~-6-10-11-11-10~-| x2
G|---------------------------------------------|
C|---------------------------------------------|

D|---------------------------------|
A|---------------------------------|
F|---------------------------------|
C|-10-6~-6-10-11-11-10-6~-8~-8-5---|
G|-------------------------------6-|
C|---------------------------------|

Repeat Final Chorus until the end of the song and fade out...

************************************

| /   slide up
| \   slide down
| ~   vibrato
| +   harmonic
| x   Mute note

************************************

If you have any comments/corrections, please say in either the comments box or leave me 
a message.
Good luck and enjoy!
Добавлено: 02.11.2013
Другие материалы по этой песне:
  • Аккорды и текст

Страница создана 02.11.2013
http://primanota.ru/misc-unsigned-bands/alkehol-dej-mi-svou-dui-chords.htm
Привет, Гость.
Предлагаем пройти революционный курс по гитаре.
Подарок от PrimaNota.Ru, забирай!