PrimaNota.ru - самый крупный в мире бесплатный архив песенных текстов, аккордов, табулатур и нот


Misc Unsigned Bands - 3oh3 - Colorado Sunrise - таба

Регистрация Запомнить меня
Войти через:  Facebook Google Twitter Vk Yandex Mail.ru

Misc Unsigned Bands - 3oh3 - Colorado Sunrise - таба

Печатать
Просмотров: 90
Colorado Sunrise - 3OH!3

Tabber: Ryan Hennessey

URL: www.myspace.com/theguyinthefuckyouhat


Tuning: Standard

Notes: The guy who posted this before me had it mostly right. I figured the end set of
while playing. Please rate!

         Guitar 1

e|-------------------------|
B|-------------------------|
G|--3-1--------------------|
D|1-------------------0----|
A|----------6-6-----6------|
E|--------4-------4--------|

e|-------------------------|
B|-------------------------|
G|--3-1--------------------|
D|1-------------------0----|
A|----------6-6-----6------|
E|--------4-------4--------|

         Guitar 1 & 2

e|---------------------------------|
B|---------------------------------|
G|---------------------------------|
D|------8-6------------------------|
A|---6--------------6-6-------9-6--|
E|---------------4---------7-------|


Credit for the last part with both guitars goes to Atreyu619.
Добавлено: 29.07.2013
Другие материалы по этой песне:
  • Аккорды и текст

Страница создана 29.07.2013
http://primanota.ru/misc-unsigned-bands/3oh3-colorado-sunrise-chords.htm
Привет, Гость.
Предлагаем пройти революционный курс по гитаре.
Подарок от PrimaNota.Ru, забирай!