PrimaNota.ru - самый крупный в мире бесплатный архив песенных текстов, аккордов, табулатур и нот


Misc Unsigned Bands - Artless Rejection - Butterflies And Bruises - таба

Регистрация Запомнить меня
Войти через:  Facebook Google Twitter Vk Yandex Mail.ru

Misc Unsigned Bands - Artless Rejection - Butterflies And Bruises - таба

Печатать
Просмотров: 71
-------------------------------------------------------------------------------
                             butterflies and bruises - Artless Rejection
-------------------------------------------------------------------------------
Tabbed by:randomEKC
Email:laine_starr@hotmail.com

Tuning:standard



It's for the first two verses for sure.. I think ;D


   I sit here...  the next stop.. where i'll burry.. but take my hand..
e|---------------------------------------------------------------------------|
B|---------------------------------5555555555555-----------------------------|
G|----------------4444444----------4444444444444-----------------------------|
D|-2222222--------5555555----------5555555555555------2222222----------------|
A|-3333333-------------------------------3333333------3333333----------------|
E|---------------------------------------------------------------------------|
                                         ^^^^^^^ start at "peace"


  and lead me.. i could never.. live .this .way ------------->
e|---------------------------------------------------------------------------|
B|---------------------------------------------------------------------------|
G|-4444444-----4444444----------8\----6\----4\--22222\---111111--------------|
D|-5555555-----5555555----------9\----7\----5\--33333\---222222--------------|
A|-------------5555555----------9\----7\----5\--33333\---222222--------------|
E|-------------4444444----------8\----6\----4\--22222\---111111--------------|


(live. this. way. should only be one strum down and / = slide left/down)

   lying in..  your eyes..    because.   you're.    gone.
e|---------------------------------------------------------------------------|
B|---------------------------5555555-----------------------------------------|
G|-------------4444444-------4444444-----4444444-----------------------------|
D|---2~--------5555555-------5555555-----5555555----222222-------------------|
A|---3~----------------------------------3333333----333333-------------------|
E|---------------------------------------------------------------------------|


************************************

| /   slide up
| \   slide down
| h   hammer-on
| p   pull-off
| ~   vibrato
| +   harmonic
| x   Mute note
| b   Bend
| pb  Pre-bend
| br  Bend release
| pbr Pre-bend release
| brb Bend release bend

************************************
Добавлено: 19.08.2013
Другие материалы по этой песне:
  • Аккорды и текст

Страница создана 19.08.2013
http://primanota.ru/misc-unsigned-bands/artless-rejection-butterflies-and-bruises-chords.htm
Привет, Гость.
Предлагаем пройти революционный курс по гитаре.
Подарок от PrimaNota.Ru, забирай!