PrimaNota.ru - самый крупный в мире бесплатный архив песенных текстов, аккордов, табулатур и нот


Misc Television - The Crystal Maze - таба, видео

Регистрация Запомнить меня
Войти через:  Facebook Google Twitter Vk Yandex Mail.ru

Misc Television - The Crystal Maze - таба, видео

Печатать
Просмотров: 81
 Theme: The Crystal Maze - Channel 4 Television
 Tabbed By: Lee Thomas Robson  The_Axis@gmx.co.uk> 8/10/2002
 Tuning: Half-Step Down (Eb)
 ^ = Accent  
 _ = Palm mute (right hand)

 Opening Theme 
   1st only    hold
 eb|------|---------0-----1-----------------------------------------|
 bb|------|-------3-------------------------------------------------|
 gb|-2-2-2|:2---2-----------3---------------------------------------|
 db|-0-0-0|:0-0-------------3-3-3-3-3-3-3-3-3-3-3-3-3-3-3-3-4-4-4---|
 ab|------|-----------------1-1-1-1-1-1-1-1-1-1-1-1-1-1-1-1-4-4-4---|
 eb|------|-------------------------------------------------2-2-2---|
     - - -  -               ^ - ^ - - ^ - - ^ - - ^ - - ^ - ^ ^ ^

   hold                                            
 |-------4-----5--5-4---4---------------| 
 |-----7--------------7-----------------| 
 |---6---------------------------------:| 
 |-4--------------------------6--6-6-6-:| 
 |----------------------------4--4-4-4--| 
 |--------------------------------------| 
           hold               ^  ^ ^ ^                   hold
 |-------------------------------------------------------------2----3|
 |---------------1------2--------------4------5--------------5-------|
 |-------------3---------------------6---------------------4---------|
 |-3-3-3-----3------------2-2-2----6-------------2-2-2---2-----------|
 |-1-1-1---1--------------0-0-0--4---------------2-2-2---------------|
 |-----------------------------------------------0-0-0---------------|
   ^ ^ ^                  ^ ^ ^                  ^ ^ ^
   
 |-2---------------|-----------------| |-------------| |------|
 |---4-1-0---------|-3-1-0-----------| |-----------x3| |------|
 |---------2-0-----|-------2-0-------| |-------------| |------|
 |-------------4-2-|-----------4-2-0-| |-----2-4---5-| |-2----|
 |-----------------|-----------------| |---2---------| |-2----|
 |-----------------|-----------------| |-0-----------| |-0----|

 This next piece is played in-between Zones.
 |---------------------------------------------------------------|
 |-(----8----)(----8----)----------------------------------------|
 |:-22222222222222222222-----------------------------------------|
 |:-00000000000000000000-3333333333333333------------------------|
 |-----------------------1111111111111111-4-4-4(---8---)(---8---)|
 |----------------------------------------2-2-2-2222222222222222-|
    -------------------- --^--^--^--^--^- ^ ^ ^ ---------------- 
  
 |------------------|---------------------|---------------------|
 |------------------|---------------------|---------------------|
 |-(---8--)---------|---------------------|---------------------|
 |-6666666666666666-|-3-3-3-(-5-)(--8---)-|-2-2-2-(-5-)(--8----)|
 |-4444444444444444-|-1-1-1-1111111111111-|-0-0-0-0000000000000-|
   --------^--^--^-   ^ ^ ^ -------------   ^ ^ ^ -------------
 db|---------------------|----------------------|
 ab|-2-2-2-(-5-)(--8----)|-2-2-2----2-2-1-2-3-4-|
 eb|-0-0-0-0000000000000-|-0-0-0----0-0---------|
     ^ ^ ^ -------------   ^ ^ ^    ^ ^ 

-- 
     
Добавлено: 24.09.2013
Другие материалы по этой песне:
  • Аккорды и текст

Страница создана 29.08.2013
http://primanota.ru/misc-television/the-crystal-maze-chords.htm
Привет, Гость.
Предлагаем пройти революционный курс по гитаре.
Подарок от PrimaNota.Ru, забирай!