PrimaNota.ru - самый крупный в мире бесплатный архив песенных текстов, аккордов, табулатур и нот


Misc Television - Vidz - таба, видео

Регистрация Запомнить меня
Войти через:  Facebook Google Twitter Vk Yandex Mail.ru

Misc Television - Vidz - таба, видео

Печатать
Просмотров: 92
Key: // = Tremolo picking ( very fast )


Main Theme


G  F#                                 G  F#
e-------------------------------------|-------------------------------------|
B-------------------------------------|-------------------------------------|
G-------------------------------------|-------------------------------------|
D-------------------------2-----------|-------------------------2--4--------|
A-----------2----2--2--0--------------|-----------2----2--2--0--------------|
E--2--2--2-------------------3--------|--2--2--2----------------------------|
                                                                      
Repeat.

Second time ( ending )

e-------------------------------------|-------------------------------------|
B-------------------------------------|-------------------------------------|
G-------------------------------------|-------------------------------------|
D--4-----------------2----------------|-------------------------------------|
A--//----------------//---------------|--4----------------------------------|
E-------------------------------------|-------------------------------------|


  G  F#

A second guitar playes barre chords   underneath the main riff(s).              
                          The riff starts on the F# Let the F#    ring until 
e-3--2------------------------------| the start of each phrase then play again.
B-3--2------------------------------| underneath the main riff(s). The riff
G-4--3------------------------------| starts on the F# chord. Let the F#
D-5--4------------------------------| chord ring until the next phrase ( see
A-5--4------------------------------| above the tab lines ).
E-3--2------------------------------|


Here are a couple of the parts played inbetween items during the show:

D-----------------|     D----------------------------------4--|
A--2--0-----------|     A-------------------------------------|
E--------3--1--2--| And E-0--1--2--0--1--2--0--1--2--0--1-----|

     
Добавлено: 06.10.2013
Другие материалы по этой песне:
  • Аккорды и текст

Страница создана 06.10.2013
http://primanota.ru/misc-television/vidz-chords.htm
Привет, Гость.
Предлагаем пройти революционный курс по гитаре.
Подарок от PrimaNota.Ru, забирай!