PrimaNota.ru - самый крупный в мире бесплатный архив песенных текстов, аккордов, табулатур и нот


Misc Television - Rita Guitar - таба, видео

Регистрация Запомнить меня
Войти через:  Facebook Google Twitter Vk Yandex Mail.ru

Misc Television - Rita Guitar - таба, видео

Печатать
Просмотров: 42
-------------------------------------------------------------------------------
                             Rita 'Background' Guitar - Rita
-------------------------------------------------------------------------------
Tabbed by: Ollie OC
E-mail: olliecguitar@gmail.com

Hi! This guitar riff is used in 'Rita' (the Danish drama) throughout the show. If you have any queries or 
questions don't hesitate to contact me at olliecguitar@gmail.com

Tuning: Standard

STRUMMING PATTERN FOR ALL THE CHORDS : 
DOWN ¬ UP - MUTE - UP - UP (NEW CHORD)
DOWN ¬ UP - MUTE - UP - UP (NEW CHORD)
DOWN ¬ UP - MUTE - UP - UP (NEW CHORD)
DOWN ¬ UP - MUTE - UP - UP (NEW CHORD)
REPEAT

e|-----7---------7-------X-------7------7------------------------------------|
B|-----8---------8-------X-------8------8------------------------------------|
G|-----7---------7-------X-------7------7------------------------------------|
D|-----9---------9-------X-------9------9------------------------------------|
A|-----7---------7-------X-------7------7------------------------------------|
E|-----7---------7-------X-------7------7------------------------------------|

e|-----7---------7-------X-------7------7------------------------------------|
B|-----7---------7-------X-------7------7------------------------------------|
G|-----7---------7-------X-------7------7------------------------------------|
D|-----7---------7-------X-------7------9------------------------------------|
A|-----9---------9-------X-------9------7------------------------------------|
E|-----7---------7-------X-------7------7------------------------------------|

e|-----5---------5-------X-------5------5------------------------------------|
B|-----5---------5-------X-------5------5------------------------------------|
G|-----5---------5-------X-------5------5------------------------------------|
D|-----5---------5-------X-------5------5------------------------------------|
A|-----7---------7-------X-------7------7------------------------------------|
E|-----5---------5-------X-------5------5------------------------------------|

e|-----7---------7-------X-------7------7------------------------------------|
B|-----7---------7-------X-------7------7------------------------------------|
G|-----7---------7-------X-------7------7------------------------------------|
D|-----7---------7-------X-------7------9------------------------------------|
A|-----9---------9-------X-------9------7------------------------------------|
E|-----7---------7-------X-------7------7------------------------------------|


************************************
NOW REPEAT THIS AGAIN!
************************************

Thank you for playing this, please leave a comment and a rating if you found it helpful!

************************************

| /   slide up
| \   slide down
| h   hammer-on
| p   pull-off
| ~   vibrato
| +   harmonic
| x   Mute note
| b   Bend
| pb  Pre-bend
| br  Bend release
| pbr Pre-bend release
| brb Bend release bend

************************************
Добавлено: 06.04.2016
Другие материалы по этой песне:
  • Аккорды и текст

Страница создана 06.04.2016
http://primanota.ru/misc-television/rita-guitar-chords.htm
Привет, Гость.
Предлагаем пройти революционный курс по гитаре.
Подарок от PrimaNota.Ru, забирай!