PrimaNota.ru - самый крупный в мире бесплатный архив песенных текстов, аккордов, табулатур и нот


Misc Television - Talking Dead - Talking Dead Live Quiz - таба, видео

Регистрация Запомнить меня
Войти через:  Facebook Google Twitter Vk Yandex Mail.ru

Misc Television - Talking Dead - Talking Dead Live Quiz - таба, видео

Печатать
Просмотров: 42
talking dead live quiz


talking dead


TRANSCRIBED BY RUDY GUZMAN


guzman_84@hotmail.com




                                               
e:-------------------------------------|
B:-------------------------------------|
G:-------------------------------------|
D:-------------------------------------|
A:-4-------4---4---4-4-----4--4-4--5-4-|
E:-2--2-2--2-2-2-2-2-2-2-2-2--2-2--3-2-|


 pm...................................
e:-------------------------------------|
B:-------------------------------------|
G:-------------------------------------|
D:-------------------------------------|
A:-4-------4---4---4-4-----4--4-4--5-4-|
E:-2--2-2--2-2-2-2-2-2-2-2-2--2-2--3-2-|

 pm...............................
e:---------------------------------|
B:---------------------------------|
G:---------------------------------|
D:---2-4---2-4---2-4---2-4-2-4-2-4-|
A:-4-----4-----4-----4-------------|
E:---------------------------------|

 pm.............................
e:-------------------------------|
B:-------------------------------|
G:-------------------------------|
D:-------------------------------|
A:-4-4-4-4-4-4-4-4-4-4-4-4-4-4-4-|
E:-2-2-2-2-2-2-2-2-2-2-2-2-2-2-2-|



hillo son mex

5/10/15
Добавлено: 06.04.2016
Другие материалы по этой песне:
  • Аккорды и текст

Страница создана 06.04.2016
http://primanota.ru/misc-television/talking-dead-talking-dead-live-quiz-chords.htm
Привет, Гость.
Предлагаем пройти революционный курс по гитаре.
Подарок от PrimaNota.Ru, забирай!