PrimaNota.ru - самый крупный в мире бесплатный архив песенных текстов, аккордов, табулатур и нот


Misc Television - Dragon Ball Z Season One Intro Theme - таба, видео

Регистрация Запомнить меня
Войти через:  Facebook Google Twitter Vk Yandex Mail.ru

Misc Television - Dragon Ball Z Season One Intro Theme - таба, видео

Печатать
Просмотров: 86
-------------------------------------------------------------------------------
       DBZ season one funimation theme - DRAGON BALL Z!!!
-------------------------------------------------------------------------------
Tabbed by: Michael E. Terwilliger

E-mail: Metalguitargod2010@gmail.com

composer: Mark Manza

Tv animation series: 1995 Dragon ball Z!
 
This is in lead guitar you must listen to the song, I recommend YouTube. 
ill put spaces in between riffs
for breaking points so its not all mashed together. these are bad ass riffs! lol! enjoy the tab!  
"Note"
these are NOT my riffs nor is this a version of the song I tabbed out my self! 
this how you actually play
the song in lead years ago my guitar teacher taught this to me. to the best of my knowledge this is how 
you play the intro Funimation DBZ theme! 

Tuning: e B G D A E

intr
e|-----------------------------12-12-12-12-12-12-12-12-12-----|
B|--10-10-10-10-10-10-10-10-10-12-12-12-12-12-12-12-12-12-10--|
G|---9--9--9--9--9--9--9--9--9--9--9--9--9--9--9--9--9--9--9--|
D|------------------------------------------------------------|X2
A|------------------------------------------------------------|
E|------------------------------------------------------------|

e|----------------------|------------|---------------|------------------|
B|----------------------|------------|---------------|------------------|
G|-----6-7-9-7---6------|------6-7---|-----5-7-------|-6-7---9-7-5-4----|
D|-7-7-------------9-7--|--7-7-----7-|-5-5-----5-7-7-|-----7------------|
A|----------------------|------------|---------------|------------------|
E|----------------------|------------|---------------|------------------|

e|---------------------|----------|-------------------|---------------------------|
B|---10-12-14-12-10-10-|-10-12-14-|-10-12-14-15-14-12-|-10-10-10---10-12-14-12----|
G|-11------------------|----------|-------------------|---------11----------------|
D|---------------------|----------|-------------------|---------------------------|
A|---------------------|----------|-------------------|---------------------------|
E|---------------------|----------|-------------------|---------------------------|

e|------------------|---------------------------------|
B|-10-10-10--10-----|-----10-14/15-12-10-10-10--------|
G|-------------11-9-|---9--------------------9--------|
D|------------------|-9-------------------------------|
A|------------------|---------------------------------|
E|------------------|---------------------------------|

outro
e|-----------------------------12-12-12-12-12-12-12-12-12--------|
B|--10-10-10-10-10-10-10-10-10-12-12-12-12-12-12-12-12-12-10-----|
G|---9--9--9--9--9--9--9--9--9--9--9--9--9--9--9--9--9--9--9-----|
D|---------------------------------------------------------------|X2
A|---------------------------------------------------------------|
E|---------------------------------------------------------------|

e|----------------------------------|
B|----------------------------------|
G|-----6-7-9-7-6----------6---------|
D|-7-7-----------9-7--7-7-----------|
A|----------------------------------|
E|----------------------------------|

e|---------------------|---------------------|
B|---------------------|---------------------|
G|--7----5---7---------|-6-7--9-7-5--4-------|
D|----7-5---5---5--7-7-|----7--------5-------|
A|---------------------|---------------------|
E|---------------------|---------------------|

e|------------------------------|-----------------------------------------|
B|---10-12-14-12-10-10-10-12-14-|-10-12-14-15-14-12-10-10-10--------------|
G|-11---------------------------|-----------------------------------------|
D|------------------------------|-----------------------------------------|
A|------------------------------|-----------------------------------------|
E|------------------------------|-----------------------------------------|

e|---------------------------------|--------------------------------------|
B|---10-12-14-12-10-10-10-10-------|---10-14-15-12-10-10-10---------------|
G|-11------------------------11-9--|--9---------------------9-------------|
D|---------------------------------|-9------------------------------------|
A|---------------------------------|--------------------------------------|
E|---------------------------------|--------------------------------------|

e|----------------------------------------------|-------9-10-12-10----|
B|-10-10-10-10-10-10-10-10-10-10-10-10-10-10-10-|-10-10---------------|
G|----------------------------------------------|---------------------|
D|----------------------------------------------|---------------------|
A|----------------------------------------------|---------------------|
E|----------------------------------------------|---------------------|

e|--9-------------9-10-----8---10----------------------|
B|----12-10-10-10-----10-8---8----8-10-10--------------|
G|-----------------------------------------------------|
D|-----------------------------------------------------|
A|-----------------------------------------------------|
E|-----------------------------------------------------|

e|-------9-10-12-10-9------------9--10----12----------|
B|-10-10-------------12-10-10-10-------10-------------|
G|----------------------------------------------------|
D|----------------------------------------------------|
A|----------------------------------------------------|
E|----------------------------------------------------|

e|-14-15--17-17-17-17-17-17-17-17-17-17-17-17-17-17--------------------------------|
B|---------------------------------------------------------------------------------|
G|--------------------------------------------------9-7-5--------------------------|
D|--------------------------------------------------------9-7-5-----2--------------|
A|------------------------------------------------------------------2--------------|
E|------------------------------------------------------------------0--------------|


************************************

| /   slide up
| \   slide down
| h   hammer-on
| p   pull-off
| ~   vibrato
| +   harmonic
| x   Mute note
| b   Bend
| pb  Pre-bend
| br  Bend release
| pbr Pre-bend release
| brb Bend release bend

************************************
Добавлено: 29.09.2015
Другие материалы по этой песне:
  • Аккорды и текст

Страница создана 29.09.2015
http://primanota.ru/misc-television/dragon-ball-z-season-one-intro-theme-chords.htm
Привет, Гость.
Предлагаем пройти революционный курс по гитаре.
Подарок от PrimaNota.Ru, забирай!