PrimaNota.ru - самый крупный в мире бесплатный архив песенных текстов, аккордов, табулатур и нот


Misc Television - Kit-kat Jingle Theme - таба, видео

Регистрация Запомнить меня
Войти через:  Facebook Google Twitter Vk Yandex Mail.ru

Misc Television - Kit-kat Jingle Theme - таба, видео

Печатать
Просмотров: 81
-------------------------------------------------------------------------------
                             Kit-Kat Jingle
-------------------------------------------------------------------------------
Tabbed by: seth7697
E-mail: shborrowman@yahoo.com

Tuning: Standard

e|---------0--2--3-----3-3-2-0----3-3-2-2-0-0-2---2-2-2----------------------|
B|-----3------------------------------------------3-3-3----------------------|
G|------------------------------------------------2-2-2----------------------|
D|------------------------------------------------0-0-0----------------------|
A|---------------------------------------------------------------------------|
E|---------------------------------------------------------------------------|

You may want to try G chord at the end instead of D. Whichever you like better.

This is my first tab. May not be perfect. Email me if there are any questions: I'm open to fixing any problems
you may find!
Добавлено: 29.09.2015
Другие материалы по этой песне:
  • Аккорды и текст

Страница создана 29.09.2015
http://primanota.ru/misc-television/kit-kat-jingle-theme-chords.htm
Привет, Гость.
Предлагаем пройти революционный курс по гитаре.
Подарок от PrimaNota.Ru, забирай!