PrimaNota.ru - самый крупный в мире бесплатный архив песенных текстов, аккордов, табулатур и нот


Misc Soundtrack - Sound City - Cut Me Some Slack - бас-таба, видео

Регистрация Запомнить меня
Войти через:  Facebook Google Twitter Vk Yandex Mail.ru

Misc Soundtrack - Sound City - Cut Me Some Slack - бас-таба, видео

Печатать
Просмотров: 143
Уроки эстрадного вокала в Санкт-Петербурге
-------------------------------------------------------------------------------
                             Cut Me Some Slack - Sound City Soundtrack
-------------------------------------------------------------------------------
Tabbed by: KnuckleChildren
E-mail: danreid1977@optusnet.com.au

Tuning: DADG (drop D)


A McCartney/Grohl/Novoselic/Smear collaboration from the Sound City soundtrack with a 
slammin' bass track!


Riff A (intro/bridge)

G|---------------------------------------------------------------------------|
D|----------------------3----------------------------------------------------|
A|-------5----3----5---------5----3----5-------------------------------------|
D|--0------------------------------------------------------------------------|



Riff B (verse)

G|-----------------------------------------------------------------------------|
D|------------------------------------------------------3------3--4--5--3------|
A|----------5-----5-------------------------------3/5-------5--------------5---|
D|--0--0-------0------0--5--5--3--3--1----0--0---------------------------------|



Riff C (verse variation)

G|-----------------------------------------------------------------------------|
D|------------------------------------------------------3---3-------3----------|
A|----------5-----5-------------------------------3/5------------5-----5--3----|
D|--0--0-------0------0--5--5--3--3--1----0--0---------------------------------|



Riff D (pre-chorus?)

G|----------------------------------------------------------------------------|
D|--4--4--4--4--5--5--5--5----7--5--------------------------------------------|
A|-----------------------------------5---5-5-5-5------------------------------|
D|------------------------------------------------3-3-3-5-3-3-----------------|



Riff E (chorus?)
                 this part x3                 then this part x1
G|-------------------------------|----------------5----------------------------|
D|---------7---5/7--5------------|----------5/7-------7---5--------------------|
A|--0--0---------------7--5--5---|---0--0---------------------7----------------|
D|-------------------------------|---------------------------------------------|



Riff F (outro)

G|---------------------------------------------------------------------------|
D|---------------------------------------------------------------------------|
A|--5-5-5-5-5-5-5-5-6-6-6-6-6-6-6-6-7-7-7-7-7-7-7-7-6-6-6-6-6-6-6-6----------|
D|---------------------------------------------------------------------------|

G|---------------------------------------------------------------------------|
D|---------------------------------------------------------------------------|
A|---------------------------------------------------------------------------|
D|--0-0-0-0-0-0-0-0-1-1-1-1-1-1-1-1-2-2-2-2-2-2-2-2-1-1-1-1-1-1-1-1----------|



Riff G (only played right at the end)

G|---------------------------------------------------------------------------|
D|---------------------------------------------------------------------------|
A|--5-5-5-5-5-5-5-5-6-6-6-6-6-6-6-6-7-7-7-7-7-7-7-7-6-6-6-6-6-6-6-6----------|
D|--------------------------------------------------------------------0------|


I've tried to approximate the rhythm of the song with my tab mapping, but as always, 
listen to the song to nail it.

Song structure:

Riff A  x2
Riff B  x5
Riff C  x1
Riff B  x4
Riff D  x2
Riff B  x6
Riff E  x1
Riff A  x4
Riff D  x4
Riff F  x1
Riff E  x1
Riff F  x5
Riff G  x1


It's a great song to rock out to while playing along, so enjoy!  \m/

Any questions, corrections, etc, e-mail me.
Добавлено: 02.08.2013
Другие материалы по этой песне:
  • Аккорды и текст

Страница создана 02.08.2013
http://primanota.ru/misc-soundtrack/sound-city-cut-me-some-slack-chords.htm
Привет, Гость.
Предлагаем пройти революционный курс по гитаре.
Подарок от PrimaNota.Ru, забирай!