PrimaNota.ru - самый крупный в мире бесплатный архив песенных текстов, аккордов, табулатур и нот


Misc Soundtrack - The Golden Girls - Thank You For Being A Friend - бас-таба, видео

Регистрация Запомнить меня
Войти через:  Facebook Google Twitter Vk Yandex Mail.ru

Misc Soundtrack - The Golden Girls - Thank You For Being A Friend - бас-таба, видео

Печатать
Просмотров: 87
bass
     E  E  E  E     W                   H        E  E  E  E   
G||--------7--7--|--L----------------|--L--------------7--7--|
D||--7--9--------|-------------------|-----------7--9--------|
A||--------------|-------------------|-----------------------|
E||--------------|-------------------|-----------------------|


  W                   H        E  E  E  E     W                 
--L----------------|--L--------------7-----|-------------------|
-------------------|-----------7--9-----7--|--0----------------|
-------------------|-----------------------|-------------------|
-------------------|-----------------------|-------------------|


  H        E  E  E  E     Q.     S S Q    Q       Q    E  E  Q    Q     
-----------------7--7--|--L----------7----6----|-----------------------|
--L--------7--9--------|---------7-9-----------|--9-------9--9---------|
-----------------------|-----------------------|-----------------------|
-----------------------|-----------------------|-----------------------|


  Q    E  E  Q    Q        Q    E   E   Q    Q       Q    E  E  Q    Q     
-----------------------|--------------------------|-----------------------|
--7-------7--7---------|--------------------------|-----------------------|
-----------------------|--10-------10--10---------|--9-------9--9---------|
-----------------------|--------------------------|-----------------------|


  Q.     Q.     Q       Q.      Q.     E   E      Q    Q    Q     Q     
---------------------|------------------------|------------------------|
--9------0-----------|--7\------0-------------|------------------------|
---------------------|-----------------5s--7--|--10----9----7----------|
---------------------|------------------------|------------------10----|


  E  E  E  E  E  E  E  E     H        E  E  E  E     Q    E  Q    E  Q      
--------------------------|--7--------L-----7--6--|--L-------4-------------|
--7--7--7--7--7--7--7--7--|--------------7--------|------------------7\----|
--------------------------|-----------------------|------------------------|
--------------------------|-----------------------|------------------------|


  W                  
-------------------||
--0----------------||
-------------------||
-------------------||




Duration Legend
---------------
W - whole
H - half
Q - quarter
E - 8th
S - 16th
T - 32nd
X - 64th
. - note dotted
|-n-|  - n-tuplets


Tablature Legend
----------------
L - tied note
x - dead note
g - grace note
(n) - ghost note
> - accentuded note
NH - natural harmonic
AH - artificial harmonic
TH - tapped harmonic
SH - semi harmonic
PH - pitch harmonic
h - hammer on
p - pull off
b - bend
br - bendRelease
pb - preBend
pbr - preBendRelease
brb - bendReleaseBend
\n/ - tremolo bar dip
\n - tremolo bar dive
-/n - tremolo bar Release up
/n\ - tremolo bar inverted dip
/n - tremolo bar return
-\n - tremolo bar Release down
S - shift slide
s - legato slide
/ -  slide into from below or out of upwards
\ -  slide into from above or out of downwards
~ - vibrato
W - wide vibrato
tr - trill
TP - tremolo picking
T - tapping
S - slap
P - pop
< - fade in
^ - brush up
v - brush down
Добавлено: 03.07.2013
Другие материалы по этой песне:
  • Аккорды и текст

Страница создана 03.07.2013
http://primanota.ru/misc-soundtrack/the-golden-girls-thank-you-for-being-a-friend-chords.htm
Привет, Гость.
Предлагаем пройти революционный курс по гитаре.
Подарок от PrimaNota.Ru, забирай!