PrimaNota.ru - самый крупный в мире бесплатный архив песенных текстов, аккордов, табулатур и нот


Misc Soundtrack - Rwby - Caffeine - бас-таба, видео

Регистрация Запомнить меня
Войти через:  Facebook Google Twitter Vk Yandex Mail.ru

Misc Soundtrack - Rwby - Caffeine - бас-таба, видео

Печатать
Просмотров: 107
-------------------------------------------------------------------------------
               CAFFEINE - Jeff Williams feat. Casey Lee Williams
-------------------------------------------------------------------------------

From the RWBY Volume 2 Soundtrack

Intro

Slide down

G|-------------------------------|
D|---3-5---3-5-----3-5-----3-5---| x3
A|-------------------------------|
E|3------3-----3-3-----3-3-----3-|

G|--3-3-3-----------7-6-5-3-------|
D|--------3-5-3-------------5-0-3-|
A|--------------5-3---------------|
E|3-------------------------------|

G|-------------------------------|
D|---3-5---3-5-----3-5-----3-5---| x3
A|-------------------------------|
E|3------3-----3-3-----3-3-----3-|

G|5-7535--3---------------------|
D|----------5-3---3-5-5---------|
A|--------------5---------1-1-1-|
E|------------------------------|

Verse

G|--------------------------------------------------------------------------|
D|--------------------------------------------------------------------------| And so on...
A|--------------------------------------------------------------------------|
E|3-3-3-3-3-3-3-3-3-3-3-3-3-3-3-3-3-3-3-3-3-3-3-3-3-3-3-3-3-3-3-3-3-3-3-3-3-|

Chorus

G|----------------------------------------------------------------|
D|----------------------------------------------------------------| x2
A|3-3-3-3-3-3-3-3-3-3-3-3-3-3-3-----------------------------------|
E|------------------------------3-3-3-3-3-3-3-3-3-3-3-3-3-3-3-3-3-|

G|--------------------------------|
D|--------------------------------| x3
A|6-6-6-6-6-6-6-6-5-5-5-5-5-5-5-5-|
E|--------------------------------|

G|----------------|
D|----------------|  "...afraid to take you..."
A|3-3-3-3-3-3-3-5-|
E|----------------|

"...out."

G|----------------------------------------------------------|
D|----------------------------------------------------------| x2
A|----------------------------------------------------------|
E|3--3-3-3-3-3-3-1--1-1-1-1-1-1-0--0-0-0-0-0-0--------------|
B|---------------------------------------------4--4-4-4-4-4-|

Or, if you don't have a low B:

G|----------------------------------------------------------|
D|5--5-5-5-5-5-5-3--3-3-3-3-3-3-2--2-2-2-2-2-2-1--1-1-1-1-1-| x2
A|----------------------------------------------------------|
E|----------------------------------------------------------|
B|----------------------------------------------------------|

G|--|
D|--| 
A|--|
E|3-|

Solo

G|-------------------------|
D|-------------------------|
A|-------------------------|
E|3------3-----3-------3-1-|

G|-------------------------|
D|-------------------------|
A|--------------------1--3-|
E|3------3-----3-----------|

| /  slide up
| \  slide down
| h  hammer-on
| p  pull-off
| ~  vibrato
| +  harmonic
| x  Mute note
Добавлено: 26.08.2015
Другие материалы по этой песне:
  • Аккорды и текст

Страница создана 26.08.2015
http://primanota.ru/misc-soundtrack/rwby-caffeine-chords.htm
Привет, Гость.
Предлагаем пройти революционный курс по гитаре.
Подарок от PrimaNota.Ru, забирай!