PrimaNota.ru - самый крупный в мире бесплатный архив песенных текстов, аккордов, табулатур и нот


Misc Soundtrack - The Hobbit - Misty Mountains - бас-таба, видео

Регистрация Запомнить меня
Войти через:  Facebook Google Twitter Vk Yandex Mail.ru

Misc Soundtrack - The Hobbit - Misty Mountains - бас-таба, видео

Печатать
Просмотров: 196
Уроки эстрадного вокала в Санкт-Петербурге
-------------------------------------------------------------------------------
                     Misty Mountains - Richard Armitage
-------------------------------------------------------------------------------
Tabbed by: Andrew Simmer
E-mail: AndrewSimmerWebb@yahoo.com

Tuning: Standard

   Intro/Outro
 G|-0---------------0------3---5--7-5--3--2--0------------0--2----3--5--3-2-0-|
 D|------3----0--3----------------------------------0--3----------------------|
 A|---------------------------------------------------------------------------|
 E|---------------------------------------------------------------------------|

    Far over the Misty Mountains cold,   to dungeons deep, and caverns old,
 G|-------0---3--5-7-5---3--2-----0--------------0----2-----3--5--3-2---0-----|
 D|--0--3--------------------------------0---3--------------------------------|
 A|---------------------------------------------------------------------------|
 E|---------------------------------------------------------------------------|

    We must away, ere break of day, to find our long forgotten gold
 G|-3---5-----7----3----5---0---2------------0---2----3--2------0-------------|
 D|---------7-----------------------0---3-------------------3-----------------|
 A|---------------------------------------------------------------------------|
 E|---------------------------------------------------------------------------|

  Order:
    Intro
    Lyrics x2
    Outro



          Full Lyrics:

      Far over the Misty Mountains cold
      To dungeons deep and caverns old
      We must away, ere break of day
      To find our long forgotten gold

      The pines were roaring on the heights
      The wind were moaning in the night
      The fire was red, it flaming spread
      The trees like torches blazed with light

===============================================================================
Добавлено: 26.08.2015
Другие материалы по этой песне:
  • Аккорды и текст

Страница создана 26.08.2015
http://primanota.ru/misc-soundtrack/hobbit-misty-mountains-chords.htm
Привет, Гость.
Предлагаем пройти революционный курс по гитаре.
Подарок от PrimaNota.Ru, забирай!