PrimaNota.ru - самый крупный в мире бесплатный архив песенных текстов, аккордов, табулатур и нот


Misc Soundtrack - The Last Of Us Main Theme - таба, видео

Регистрация Запомнить меня
Войти через:  Facebook Google Twitter Vk Yandex Mail.ru

Misc Soundtrack - The Last Of Us Main Theme - таба, видео

Печатать
Просмотров: 2464
Новый альбом группы 'Черный Кузнец' по культовому сериалу 'Сверхъестественное'!
-------------------------------------------------------------------------------
                           The Last Of Us Main Theme - Naughty Dog Company
-------------------------------------------------------------------------------
Tabbed by:Andrei 
E-mail:al.trandafir@yahoo.com

Tuning: E A D G B e


e|-----0-----0------0------0------0------0-------0-------0-|
B|---0-----0------0------0------0------0-------0-------0---|
G|12-----9-----14-----11-----12-----12------12------12-----|
D|---------------------------------------------------------|
A|---------------------------------------------------------|
E|---------------------------------------------------------|


e|-----0-----0-----0-----0------0------0-------0------0----|
B|---0-----0-----0-----0------0------0-------0------0------|
G|12-----9----14----11-----16-----16------16-----16--------|
D|---------------------------------------------------------|
A|---------------------------------------------------------|
E|---------------------------------------------------------|



e|-----0------0------0------0------0------0------0-------0-|
B|---0------0------0------0------0------0------0-------0---|
G|12-----9-----14-----11-----12-----12------12-----12------|
D|---------------------------------------------------------|
A|---------------------------------------------------------|
E|---------------------------------------------------------|


e|-------0------0------0----0------0-------0----0~---------|
B|-----0------0------0----0------0------0-----0~-----------|
G|--15-----14-----12----9------9-----9------9~-------------|
D|---------------------------------------------------------|
A|---------------------------------------------------------|
E|---------------------------------------------------------|



************************************

| /   slide up
| \   slide down
| h   hammer-on
| p   pull-off
| ~   vibrato
| +   harmonic
| x   Mute note
| b   Bend
| pb  Pre-bend
| br  Bend release
| pbr Pre-bend release
| brb Bend release bend

************************************
Добавлено: 18.10.2014
Другие материалы по этой песне:
  • Аккорды и текст

Страница создана 18.10.2014
http://primanota.ru/misc-soundtrack/last-of-us-main-theme-chords.htm
Привет, Гость.
Предлагаем пройти революционный курс по гитаре.
Подарок от PrimaNota.Ru, забирай!