PrimaNota.ru - самый крупный в мире бесплатный архив песенных текстов, аккордов, табулатур и нот


Misc Soundtrack - Elfen Lied - Lilium - бас-таба

Регистрация Запомнить меня
Войти через:  Facebook Google Twitter Vk Yandex Mail.ru

Misc Soundtrack - Elfen Lied - Lilium - бас-таба

Печатать
Просмотров: 175
Elfen Lied - Lilium

Tabbed by: XxThreeCheersxX
E-mail: burdickash@gmail.com

Tuning: Standard

I'll be the first to admit this isn't a song that really makes all that much sense to play on bass...
But the melody is amazing and it's a great piece, so here it is in all it's glory.

G|-------------------------------------------------------------|
D|----11----------------------11-------------------------------|
A|-9------11~----12--12----9------11~----12--14--12--9~--------|
E|-------------------------------------------------------------|

G|----------------------------------------------------------------------------------|
D|----------------------------------------------------------------------------------|
A|-11---------------------9-----------------9~--------11--12--14--12~----12--11~----|
E|-----12--10--12~-----------10--9--10--12------------------------------------------|

Happy playing!

| /  slide up
| \  slide down
| h  hammer-on
| p  pull-off
| ~  vibrato
| +  harmonic
| x  Mute note
===============================================================================
Добавлено: 29.03.2015
Другие материалы по этой песне:
  • Аккорды и текст

Страница создана 29.03.2015
http://primanota.ru/misc-soundtrack/elfen-lied-lilium-chords.htm
Привет, Гость.
Предлагаем пройти революционный курс по гитаре.
Подарок от PrimaNota.Ru, забирай!