PrimaNota.ru - самый крупный в мире бесплатный архив песенных текстов, аккордов, табулатур и нот


Misc Soundtrack - La Valse Damelie - аккорды и текст

Регистрация Запомнить меня
Войти через:  Facebook Google Twitter Vk Yandex Mail.ru

Misc Soundtrack - La Valse Damelie - аккорды и текст

Печатать
Просмотров: 293
Уроки эстрадного вокала в Санкт-Петербурге
La Valse Damelie
Misc Soundtrack
Artist: Yann Tiersen
Album : Soundtrack of "Le Fabuleux Destin d'Amelie Poulain",
        a film by Jean-Pierre Jeunet
Song  : A Valse d'Amelie


Tabbed by Christophe Girard (ch_girard@yahoo.fr)


Here is my own work on "A Valse d'Amelie", by Yann Tiersen, the main
theme of last year best movie (anybody agree ? :-), "Le Fabuleux
Destin d'Amelie Poulain".

These 4 chords give the basic pattern, from which you can improvise,
and find the main melody. You may also use them for piano
transcription.

Enjoy !


Yan Tiersen - A Valse d'Amelie
-------------------------------

         Dm                               Amadd9   =20
E||------1----1---|------1----1---|-------0----0---|-------0----0---|
B||------3----2---|------3----2---|-------1----1---|-------1----1---|
G||------2----3---|------2----3---|-------4----4---|-------4----4---|
D||--0------------|--0------------|------(2)--(2)--|------(2)--(2)--|(x2)=
A||---------------|---------------|--0-------------|--0-------------|
E||---------------|---------------|----------------|----------------|


         F7M                              C7M   =20
E||------0----0---|------0----0---|-------0----0---|-------0----0---|
B||------1----1---|------1----1---|-------0----0---|-------0----0---|
G||------2----2---|------2----2---|-------0----0---|-------0----0---|
D||--3------------|--3------------|------(2)--(2)--|------(2)--(2)--|(x2)=
A||---------------|---------------|--3-------------|--3-------------|
E||---------------|---------------|----------------|----------------|


Your comments are welcome !
ch_girard@yahoo.fr

     
Добавлено: 22.10.2013
Другие материалы по этой песне:
  • Аккорды и текст

Страница создана 15.08.2013
http://primanota.ru/misc-soundtrack/la-valse-damelie-chords.htm
Привет, Гость.
Предлагаем пройти революционный курс по гитаре.
Подарок от PrimaNota.Ru, забирай!