PrimaNota.ru - самый крупный в мире бесплатный архив песенных текстов, аккордов, табулатур и нот


Misc Soundtrack - Manga - аккорды и текст, видео

Регистрация Запомнить меня
Войти через:  Facebook Google Twitter Vk Yandex Mail.ru

Misc Soundtrack - Manga - аккорды и текст, видео

Печатать
Просмотров: 135
Уроки эстрадного вокала в Санкт-Петербурге
Manga
Misc Soundtrack
Song: ?
Composers: ?


This cool tune is taken from the Guyver (animated) series on video and can
be herd at the beginning before every episode when it shows lots of 
fast-paced
action from various Manga films.

Intro
        P.M---------------------------------------------------
Eb|-----------------|----------------|----------------|------------
Bb|-----------------|----------------|----------------|------------
Gb|-----------------|----------------|----------------|------------
Db|-3---3-3-3-3-3-3-|3-3-3-3-3-3-3-3-|3-3-3-3-3-3-3-3-|3-3-3-3-3---
Ab|-3---3-3-3-3-3-3-|3-3-3-3-3-3-3-3-|3-3-3-3-3-3-3-3-|3-3-3-3-3---
Eb|-1---1-1-1-1-1-1-|1-1-1-1-1-1-1-1-|1-1-1-1-1-1-1-1-|1-1-1-1-1---

Riff
        P.M--------                   P.M--------
Eb|-----------------|----------------|----------------|--------
Bb|-----------------|----------------|----------------|--------
Gb|-----------------|----------------|----------------|--------
Db|-3---3-3-3-3-3-3-|3/4-x-5-x-5---5-|5-5-5-5-5-5-5--4|--4--3\-  x 3
Ab|-3---3-3-3-3-3-3-|3/4-x-5-x-5---5-|5-5-5-5-5-5-5--4|--4--3\-
Eb|-1---1-1-1-1-1-1-|1/2-x-3-x-7---6-|6-6-6-6-6-6-6--5|--5--4\-

4th time
Eb|-----------------|----------------|
Bb|-----------------|----------------|
Gb|-----------------|----------------|
Db|-3---3-3-3-3-3-3-|3/4-x-5-x-5---5-| uggh!
Ab|-3---3-3-3-3-3-3-|3/4-x-5-x-5---5-|
Eb|-1---1-1-1-1-1-1-|1/2-x-3-x-7---6-|

Repeat



/ - slide up
\ - slide down
x - mute note with fretting hand
P.M - play notes using Palm Muting


If you've got any questions, comments, corrections or requests
please E-mail me.
lee.robson7@hotmail.com
     
Добавлено: 22.06.2013
Другие материалы по этой песне:
  • Аккорды и текст

Страница создана 22.06.2013
http://primanota.ru/misc-soundtrack/manga-chords.htm
Привет, Гость.
Предлагаем пройти революционный курс по гитаре.
Подарок от PrimaNota.Ru, забирай!