PrimaNota.ru - самый крупный в мире бесплатный архив песенных текстов, аккордов, табулатур и нот


Misc Soundtrack - Captain Corellis Mandolin - Pelagias Song - таба, видео

Регистрация Запомнить меня
Войти через:  Facebook Google Twitter Vk Yandex Mail.ru

Misc Soundtrack - Captain Corellis Mandolin - Pelagias Song - таба, видео

Печатать
Просмотров: 66
Новый альбом группы 'Черный Кузнец' по культовому сериалу 'Сверхъестественное'!
e|--12--12--12--15--15--15--15-13-15-17--13--12--12--12--15--15--15---|
B|----10--10--10--10--10--10-------------------10--10--10--10--10--10-|
G|--------------------------------------------------------------------|
D|--------------------------------------------------------------------|
A|--------------------------------------------------------------------|
E|--------------------------------------------------------------------|


e|-15-13-15-17--13-12------10--12--13--12--10--8--6-8--10--12--13--15-|
B|--------------------------------------------------------------------|
G|--------------------------------------------------------------------|
D|--------------------------------------------------------------------|
A|--------------------------------------------------------------------|
E|--------------------------------------------------------------------|


e|-17----10--12--13--12--10--8--5--6-----13---12---10----------------|
B|-------------------------------------------------------------------|
G|-------------------------------------------------------------------|
D|-------------------------------------------------------------------|
A|-------------------------------------------------------------------|
E|-------------------------------------------------------------------|


e|---------1---0---------0--1--3--5--8--10----12--12--12--15--15--15---|
B|-----------------3----------------------------10--10--10--10--10--10-|
G|---------------------------------------------------------------------|
D|---------------------------------------------------------------------|
A|---------------------------------------------------------------------|
E|---------------------------------------------------------------------|


e|-15-13-15-17--13--12--12--12--15--15--15--15-13-15-17--13--12------|
B|--------------------10--10--10--10--10--10-------------------------|
G|-------------------------------------------------------------------|
D|-------------------------------------------------------------------|
A|-------------------------------------------------------------------|
E|-------------------------------------------------------------------|


e|-----0------1----------1--0----3-----3----5----8----7-------5----0-|
B|--------3---0------------------1--------------------8-------6----1-|
G|--0---------0--------0---------0-----------------------------------|
D|-------------------------------------------------------------------|
A|-------------------------------------------------------------------|
E|-------------------------------------------------------------------|


e|-----0------1---3---8---7---5---10---3------------------------------|
B|--------3---0-------------------------------------------------------|
G|--0---------0-------------------------------------------------------|
D|--------------------------------------------------------------------|
A|--------------------------------------------------------------------|
E|--------------------------------------------------------------------|


e|--3--1--0--------1---------------0-----1--3--7--5--3---------------|
B|-----------3--1------------------1--3-----------------1------------|
G|--------------------2---------0------------------------------------|
D|-------------------------------------------------------------------|
A|--------------------3----------------------------------------------|
E|-------------------------------------------------------------------|


e|-----------0-----0--1--5--3------------------0--1--5--0------------|
B|-----0--1-----3---------------------0--1--3------------------------|
G|--2------------------------------2---------------------------------|
D|--2------------------------------2---------------------------------|
A|--0------------------------------0---------------------------------|
E|-------------------------------------------------------------------|


e|----------0-----0--1--3--7-----8--5--3--0-------------------0-1-5-3-|
B|----0--1-----3-----------------------------3------------------------|
G|-2----------------------------------------------------2-4-5---------|
D|-2------------------------------------------------------------------|
A|-0------------------------------------------------------------------|
E|--------------------------------------------------------------------|


e|--------0----0--1--5--0------------0-----0---3--7---8---5------------|
B|----------3---------------------------3-------------6---6---6--1-----|
G|-2--4-5---------0-----------0--2-4-----------------------------------|
D|---------------------------------------------------------------------|
A|---------------------------------------------------------------------|
E|---------------------------------------------------------------3-----|


e|-----0------1----------1--0----3-----3----5----8----7-------5----0-|
B|--------3---0----------0-------1--------------------8-------6----1-|
G|--0---------0--------0-0-------0-----------------------------------|
D|-------------------------------------------------------------------|
A|-------------------------------------------------------------------|
E|-------------------------------------------------------------------|


e|-----0------1--0--3---8--7--5--8--3-----3--1--0------0------8--5--3-|
B|--------3---0------------------------------------3-1--------6--6--1-|
G|--0---------0------------------------------------------2----5--2--0-|
D|--------------------------------------------------------------------|
A|--------------------------------------------------------------------|
E|--------------------------------------------------------------------|
Добавлено: 26.04.2018
Другие материалы по этой песне:
  • Аккорды и текст

Страница создана 26.04.2018
http://primanota.ru/misc-soundtrack/captain-corellis-mandolin-pelagias-song-chords.htm
Привет, Гость.
Предлагаем пройти революционный курс по гитаре.
Подарок от PrimaNota.Ru, забирай!