PrimaNota.ru - самый крупный в мире бесплатный архив песенных текстов, аккордов, табулатур и нот


Misc Soundtrack - Cinderella - A Dream Is A Wish Your Heart Makes - таба, видео

Регистрация Запомнить меня
Войти через:  Facebook Google Twitter Vk Yandex Mail.ru

Misc Soundtrack - Cinderella - A Dream Is A Wish Your Heart Makes - таба, видео

Печатать
Просмотров: 90
Новый альбом группы 'Черный Кузнец' по культовому сериалу 'Сверхъестественное'!
[Intro]

A dream is a wish..
e|----------2---0------------------------3---2-0----0-2-0--------------------|
B|------------2---3------3---2-0--0-0--0---4---------------0-3-2-------------|
G|-2--2-1h2------------2---3----------3--------------------------2-----------|
D|-----------------------------------------------------------------4---------|
A|---------------------------------------------------------------------------|
E|---------------------------------------------------------------------------|

Have faith in your dreams..
e|---------2---0-----0---0-2-0-------------5-3-2-0-5-3---5-3-2-0---2-0-------|
B|-----------2--3--3---3-------3-0---0---0-----------------------3-----------|
G|-2-2-1h2-----------------------------3-------------------------------------|
D|---------------------------------------------------------------------------|
A|---------------------------------------------------------------------------|
E|---------------------------------------------------------------------------|

The dreams that you wish..
e|---------3-0-2--------------------------------------------------------------|
B|-3-0-2-3-------3------------------------------------------------------------|
G|----------------------------------------------------------------------------|
D|----------------------------------------------------------------------------|
A|----------------------------------------------------------------------------|
E|----------------------------------------------------------------------------|



************************************
| h   Hammer-on
************************************
Добавлено: 26.04.2018
Другие материалы по этой песне:
  • Аккорды и текст

Страница создана 26.04.2018
http://primanota.ru/misc-soundtrack/cinderella-a-dream-is-a-wish-your-heart-makes-chords.htm
Привет, Гость.
Предлагаем пройти революционный курс по гитаре.
Подарок от PrimaNota.Ru, забирай!