PrimaNota.ru - самый крупный в мире бесплатный архив песенных текстов, аккордов, табулатур и нот


Misc Soundtrack - Breaking Bad - Extended - таба, видео

Регистрация Запомнить меня
Войти через:  Facebook Google Twitter Vk Yandex Mail.ru

Misc Soundtrack - Breaking Bad - Extended - таба, видео

Печатать
Просмотров: 306
Decided to turn this awesome video into a tab since there was no extendend version on the site....
Check out this guy's video, its awesome !
https://www.youtube.com/watch?v=KO0peKcfyps
Video by: Jack Smith
Tabbed by: Steven Van Hoolst
Enjoy !


e|--------------------------------------------------|
B|--------------------------------------------------|
G|--------------------------------------------------|
D|------2b----3b-3------5-5--------7-7-------8-8----|
A|-----------------5---------5--------5---------5---|
D|--0--0-------------0----------0-------0---------0-|


e|-----------------------------------------------|
B|-----------------------------------------------|
G|-----------------------------------------------|
D|---3-3-----5-5------------5--------------------|
A|-------5-------5------8-8--------5-5--7--------|
D|----------0--------0---------------------------|


e|-----------------------------------------------|
B|-----------------------------------------------|
G|-----------------------------------------------|
D|------2b-----/5-5------/7-7-------/8-8---------|
A|-----------------/5---------/5---------/5------|
D|--0------------------0----------0----------0---|


e|-----------------------------------------------|
B|-----------------------------------------------|
G|-----------------------------------------------|
D|------2b-----/5-5-------------/5---------/8----|
A|-----------------/5------/8-8-------/5-5-------|
D|--0--------------------------------------------|


e|-----------------------------------------------|
B|-----------------------------------------------|
G|-----------------------------------------------|
D|-------2b-----0------5b-------3-----5----------|
A|--------------0------5b-------3-----5----------|
D|--0--0--------0------5b-------3-----5----------|


I'm the one who tabs !
Добавлено: 20.11.2013
Другие материалы по этой песне:
  • Аккорды и текст

Страница создана 20.11.2013
http://primanota.ru/misc-soundtrack/breaking-bad-extended-chords.htm
Привет, Гость.
Предлагаем пройти революционный курс по гитаре.
Подарок от PrimaNota.Ru, забирай!