PrimaNota.ru - самый крупный в мире бесплатный архив песенных текстов, аккордов, табулатур и нот


Misc Soundtrack - Game Of Thrones - Valar Morghulis - таба, видео

Регистрация Запомнить меня
Войти через:  Facebook Google Twitter Vk Yandex Mail.ru

Misc Soundtrack - Game Of Thrones - Valar Morghulis - таба, видео

Печатать
Просмотров: 240
            Valar Morghulis - Ramin Djawadi

Tabbed by: Proudfoot

(0:00-0:20)

e|--------------------------2-----3-----7-----5------|
B|--0-----2-----4-----5------------------------------|
G|---------------------------------------------------|
D|---------------------------------------------------|
A|--2-2-2---2-2---2-2---2-2---2-2---2-2--------------|
E|----------------------------------------7-7---7-7--|

e|--------------------------2-----3-----5-----7------|
B|--0-----2-----4-----5------------------------------|
G|---------------------------------------------------|
D|---------------------------------------------------|
A|--2-2-2---2-2---2-2---2-2---2-2---2-2---2-2--------|
E|----------------------------------------------7-7~-|


(0:25-0:49)

The percussion part with two slightly modified B chords [low to high: x24402]


(0:49-1:01)

    let ring...               
e|--------------------7----|-----------3--2----------|
B|--0--2--4--5--0-----0----|--0--2--4-----------0----|
G|--4-(4)(4)(4)-4----------|--4-(4)(4)(4)-4-----4----|
D|--------------------9----|-------------------------|
A|--2-(2)(2)(2)-2----------|--2-(2)(2)(2)-2----(2)---|
E|-------------------------|-------------------------|


(1:02-1:25)

e|--------------3----------|-----------3--2----------|
B|--0--2--4--5-------------|--0--2--4----------------|
G|--4-(4)(4)(4)-4----------|--4-(4)(4)(4)-4----------| x2
D|-------------------------|-------------------------|
A|--2-(2)(2)(2)-2----------|--2-(2)(2)(2)-2----------|
E|-------------------------|-------------------------|

strings in the background are low to high: x244xx


(1:28-1:54)

!!! 22, 44, 11 etc. in this part mean 2-2, 4-4, 1-1, ... !!!

e|-------------------------|----------0--2--3--5--7--|
B|-0--0--0--0--0--0--0--0--|-0--2--4--0--0--0--0--0--|
G|-------------------------|-4--4--4-----------------|
D|-------11-22-44-55-77-99-|----------22-44-55-77-99-|
A|-22-44-------------------|-22-44-66----------------|
E|-------------------------|-------------------------|

e|-------------------------|-------------------------|
B|-0--0--0--0--0--0--0--0--|-0--0--0--0--0--0--0--0--|
G|-------------------------|-4--4--4--4--4--4--4-(4)-|
D|-------11-22-44-55-77-99-|-------11-22-44-55-77-99-|
A|-22-44-------------------|-22-44-------------------|
E|-------------------------|-------------------------|

e|--------------2--3--7-5--|--------------2--3--5~---|
B|--0--2--4--5-------(0)---|--0--2--4--5-------------|
G|--4--4--4--4--4-(4)--(4)-|--4--4--4--4--4--4--4~---|
D|-------------------(9)---|-------------------------|
A|--2--2--2--2--2-(2)--(2)-|--2--2--2--2--2--2--2~---|
E|-------------------------|-------------------------|


(2:1O-2:35)

e|----------2-3-5-7----------2-3-7-5--|
B|--0-2-4-5----------0-2-4-5----------|
G|------------------------------------| x3
D|------------------------------------|
A|------------------------------------|
E|------------------------------------|


(2:42-2:54)

e|----------6-7-9-11---------6-7-11-9-----6-7-11-9--|
B|--4-6-8-9----------4-6-8-9-----------4------------|
G|--------------------------------------------------|
D|--------------------------------------------------|
A|--------------------------------------------------|
E|--------------------------------------------------|


There is a simple kinda flute or duduk melody in this song. It goes like this:

e|----0-h3b---|----3-p2----|
B|------------|------------|
G|------------|------------|
D|------------|------------|
A|------------|------------|
E|------------|------------|


And that's it. Valar Dohaeris.
Добавлено: 03.09.2013
Другие материалы по этой песне:
  • Аккорды и текст

Страница создана 03.09.2013
http://primanota.ru/misc-soundtrack/game-of-thrones-valar-morghulis-chords.htm
Привет, Гость.
Предлагаем пройти революционный курс по гитаре.
Подарок от PrimaNota.Ru, забирай!