PrimaNota.ru - самый крупный в мире бесплатный архив песенных текстов, аккордов, табулатур и нот


Misc Cartoons - Your Favorite Martian - Tig Ol Bitties - таба, видео

Регистрация Запомнить меня
Войти через:  Facebook Google Twitter Vk Yandex Mail.ru

Misc Cartoons - Your Favorite Martian - Tig Ol Bitties - таба, видео

Печатать
Просмотров: 218
-------------------------------------------------------------------------------
                             Tig Ol' Bitties - Your Favorite Martian
-------------------------------------------------------------------------------
Tabbed by: DZProject8
Tuning:D = DGCFAD

D|----------------------|   D|------------------------------|
A|----------------------|   A|------------------------------|
F|----------------------|   F|------------------------------|
C|----------------------|   C|------------------------------|
G|----------------------|   G|------------------------------|
D|--1-1-1-1-1-1-1-1-1-1-|   D|-1-1-4-4-4-4-6-6-6-6-4-4-4-4--|

Repeat 8 times                                       Repeat 4 times


D|----------------------------------------|
A|----------------------------------------|
F|----------------------------------------|
C|----------------------------------------|
G|-----------------------------------8-10-|
D|-8-6-4-6--8-6-4-6--8-6-4-6-8--8-11------|

Repeat 2 times


D|-------------------------------------------------------------|
A|-------------------------------------------------------------|
F|-------------------------------------------------------------|
C|-------------------------------------------------------------|
G|-101010101010-8------101010101010------10101010-8---8-10-8---|
D|----------------11-8--------------11-8------------11-------8-|



D|-----------------------------------------------------------|
A|-----------------------------------------------------------|
F|-----------------------------------------------------------|
C|-----------------------------------------------------------|
G|-101010101010-8------101010101010------101010101010-8------|
D|----------------11-8--------------11-8----------------11-8-|

Repeat all of it again from the beginning.
After you did that this come.



D|----------------------------------------------------------|
A|----------------------------------------------------------|
F|----------------------------------------------------------|
C|-10--10-12-13-12-10-8-5--5h4p-3--10-12-13-12-15-13-12b--8-|
G|----------------------------------------------------------|
D|----------------------------------------------------------|
                                                                 
Repeat 2 times.    Hammer on, on 4th and pull off to the 3 


D|------------------------------------------|
A|------------------------------------------|
F|------------------------------------------|
C|------------------------------------------|
G|-10-8------10-8-------10-8-----------8-10-|
D|------11-8------11--8------11-8-8-11------|

Repeat 2 times

D|-------------------------------------------------------------|
A|-------------------------------------------------------------|
F|-------------------------------------------------------------|
C|-------------------------------------------------------------|
G|-101010101010-8------101010101010------10101010-8---8-10-8---|
D|----------------11-8--------------11-8------------11-------8-|



D|-----------------------------------------------------------|
A|-----------------------------------------------------------|
F|-----------------------------------------------------------|
C|-----------------------------------------------------------|
G|-101010101010-8------101010101010------101010101010-8------|
D|----------------11-8--------------11-8----------------11-8-|


D|-----------------|
A|-----------------|
F|-----------------|
C|-----------------|
G|-------10-8------|
D|-8-6-4------11-8-|

The end.

************************************
| h   hammer-on
| p   pull-off
| b   Bend

************************************
http://www.youtube.com/user/Yourfavoritemartian
Добавлено: 29.04.2012
Другие материалы по этой песне:
  • Аккорды и текст

Страница создана 29.04.2012
http://primanota.ru/misc-cartoons/your-favorite-martian-tig-ol-bitties-chords.htm
Привет, Гость.
Предлагаем пройти революционный курс по гитаре.
Подарок от PrimaNota.Ru, забирай!