PrimaNota.ru - самый крупный в мире бесплатный архив песенных текстов, аккордов, табулатур и нот


Misc Cartoons - Death Note - Mellos Theme C - бас-таба, видео

Регистрация Запомнить меня
Войти через:  Facebook Google Twitter Vk Yandex Mail.ru

Misc Cartoons - Death Note - Mellos Theme C - бас-таба, видео

Печатать
Просмотров: 136
Death Note - Mello's Theme C

Tabbed by: XxThreeCheersxX
E-mail: phantomhiveghost@gmail.com

Tuning: Drop D

Part I
G|----------------7--------------------------|
D|------5-3-------------------5-3-------5-7--|
A|---55--------55-----55---55-------555------|
D|-0---------0------0----0--------0----------|

Part II
G|---------------7-|
D|---5-5-3---------|
A|------------5----| x 8
D|-0--------0------|

Part III (octave higher)
G|----------------------19-|
D|-0-17-17-15--0-----------|
A|---------------171717----| x 8
D|-------------------------|

The rest of the song is essentially playing Part II over and over.

Happy playing!
Email or leave a comment if you find any errors.
Добавлено: 03.08.2013
Другие материалы по этой песне:
  • Аккорды и текст

Страница создана 03.08.2013
http://primanota.ru/misc-cartoons/death-note-mellos-theme-c-chords.htm
Привет, Гость.
Предлагаем пройти революционный курс по гитаре.
Подарок от PrimaNota.Ru, забирай!