PrimaNota.ru - самый крупный в мире бесплатный архив песенных текстов, аккордов, табулатур и нот


Misc Cartoons - Death Note - Ls Theme B - таба, бас-таба, видео

Регистрация Запомнить меня
Войти через:  Facebook Google Twitter Vk Yandex Mail.ru

Misc Cartoons - Death Note - Ls Theme B - таба, бас-таба, видео

Печатать
Просмотров: 192
Death Note - L's Theme B

Riff 1

---------------------------|
--8---10----8-----12-------|
----9----9-----9-----12----|
---------------------------|
---------------------------|
---------------------------|

Riff 2

--------------17-14-------------17-14-------14-15--|
--17-------15-------17-------15-------15-17--------|
-----14-16-------------14-16-----------------------|
---------------------------------------------------|
---------------------------------------------------|
---------------------------------------------------|

Riff 3 (Plays along with Riff 4)

--------------17-14-----------17-14--|
--17-------15--------------15--------|
-----14-16-----------14-16-----------|
-------------------------------------|
-------------------------------------|
-------------------------------------|

Riff 4

-------------------------------------|
-------------------------------------|
--7----------------------------------|
--7----7----9-9-9-7-9--9-9-9-7-9-----|
--5----7----9-9-9-7-9--9-9-9-7-9-----|
-------5----7-7-7-5-7--7-7-7-5-7-----|

Riff 5

-----------------------------|
-----------------------------|
-----------------------------|
--9-------------7-9-9-9------|
--9--------5h7--7-9-9-9------|
--7----5h7------5-7-7-7------|
Добавлено: 08.09.2015
Другие материалы по этой песне:
  • Аккорды и текст

Страница создана 07.10.2013
http://primanota.ru/misc-cartoons/death-note-ls-theme-b-chords.htm
Привет, Гость.
Предлагаем пройти революционный курс по гитаре.
Подарок от PrimaNota.Ru, забирай!