PrimaNota.ru - самый крупный в мире бесплатный архив песенных текстов, аккордов, табулатур и нот


Misc Cartoons - Sonic X - Gotta Go Fast Theme - таба, видео

Регистрация Запомнить меня
Войти через:  Facebook Google Twitter Vk Yandex Mail.ru

Misc Cartoons - Sonic X - Gotta Go Fast Theme - таба, видео

Печатать
Просмотров: 222
Ok thought I'd Post Tabs out for the people 
Who might not have Guitar Pro. Hopefully its 
easy to read. I dont really know how to write out tabs.
Lead part is further Down. Those of you who didnt look this up threw my channel. 
Feel free to see me play it on 
http://www.youtube.com/watch?v=R4vmllOfUQg&feature=plcp



RYTHEM:

(Gotta Go Fast!!)
          E||--------------------------|    
          B||--------------------------|      
          G||--7--7--7--7--7--7--7--7--|
          D||--7--7--7--7--7--7--7--7--|
          A||--5--5--5--5--5--5--5--5--|
          E||--------------------------|


--------------------------|
--------------------------|
--------------------------|
--4--4--4--4--4--4--4--4--|
--4--4--4--4--4--4--4--4--|
--2--2--2--2--2--2--2--2--|

  (Faster! Faster!!) 
--------------------------|
--------------------------|
--7--7--7--7--7--7--7--7--|
--7--7--7--7--7--7--7--7--|
--5--5--5--5--5--5--5--5--|
--------------------------|


           PM PM PM PM PM PM PM PM  
-----------------------------------|
-----------------------------------|
-----------0--0--0--0--0--0--0--0--|
-----------------------------------|
-----------------------------------|
-----------------------------------|


           PM PM PM PM PM PM PM PM  
-----------------------------------|
-----------------------------------|
-----------0--0--0--0--0--0--0--0--|
-----------------------------------|
-----------------------------------|
-----------------------------------|

(got our selves...)
--------------------------|
--------------------------|
--------------------------|
--4--4--4--4--5--5--5--5--|
--2--2--2--2--5--5--5--5--|
--------------3--3--3--3--|


--------------------------|
--------------------------|
--------------------------|
--7--7--7--7--7--7--7--7--|
--7--7--7--7--7--7--7--7--|
--5--5--5--5--5--5--5--5--|

(with out any...)
--------------------------|
--------------------------|
--------------------------|
--6--6--6--6--6--6--6--6--|
--6--6--6--6--6--6--6--6--|
--4--4--4--4--4--4--4--4--|

(explination...)
--------------------------|
--------------------------|
--------------------------|
--5--5--5--5--5--5--5--5--|
--5--5--5--5--5--5--5--5--|
--3--3--3--3--3--3--3--3--|


 (No time for Relaxation....)
-----------------------|-----|
-----------------------|-----|
-----------------------|-----|
--7--7--7--------------|-----|
--7--7--7--------------|-----|
--5--5--5--------------|-----|

(Don't Blink, Dont think...)
--------------------------|
--------------------------|
--7--7--7--7--------------|
--7--7--7--7--4--4--4--4--|
--5--5--5--5--4--4--4--4--|
--------------2--2--2--2--|


  (Go, go, go...)
--------------------------|------|
--------------------------|------|
--7--7--7--7--7--7--7--7--|------|
--7--7--7--7--7--7--7--7--|--x---|
--5--5--5--5--5--5--5--5--|--x---|
--------------------------|--x---|
                        (Pick Slide)

  PM PM PM PM PM PM PM PM                  
--------------------------|
--------------------------|
--0--0--0--0--0--0--0--0--|
--------------------------|
--------------------------|
--------------------------|


  PM PM PM PM PM PM PM PM                  
--------------------------|
--------------------------|
--0--0--0--0--0--0--0--0--|
--------------------------|
--------------------------|
--------------------------|

                    (Watch Out!!)
                    PM PM                   
-----|-----|-----|---------------------|
-----|-----|-----|---------------------|
-----|-----|-----|--7--7---------------|
-----|-----|-----|--7--7---------------|
-----|-----|-----|--5--5---------------|
-----|-----|-----|---------------------|

(Gotta Go Fast!!...)
--------------------------|
--------------------------|
--7--7--7--7--7--7--7--7--|
--7--7--7--7--7--7--7--7--|
--5--5--5--5--5--5--5--5--|
--------------------------|

--------------------------|
--------------------------|
--------------------------|
--4--4--4--4--4--4--4--4--|
--4--4--4--4--4--4--4--4--|
--2--2--2--2--2--2--2--2--|


--------------------------|
--------------------------|
--7--7--7--7--7--7--7--7--|
--7--7--7--7--7--7--7--7--|
--5--5--5--5--5--5--5--5--|
--------------------------|

 (Son......ic.........X!!) 
--------------------|
--------------------|
--7--------9--------|
--7--------9--------|
--5--------7--------|
--------------------|

--------------------------|
--------------------------|
--7--7--7--7--7--7--7--7--|
--7--7--7--7--7--7--7--7--|
--5--5--5--5--5--5--5--5--|
--------------------------|


--------------------------|
--------------------------|
--------------------------|
--4--4--4--4--4--4--4--4--|
--4--4--4--4--4--4--4--4--|
--2--2--2--2--2--2--2--2--|


--------------------------|
--------------------------|
--7--7--7--7--7--7--7--7--|
--7--7--7--7--7--7--7--7--|
--5--5--5--5--5--5--5--5--|
--------------------------|


-------------------|
-------------------|
--7----------------|
--7----------------|
--5----------------|
-------------------|





LEAD:

(Gotta Go Fast!!)

          E||--14------14------14------14------|   
          B||------15------15------15------15--|
          G||----------------------------------|
          D||----------------------------------|
          A||----------------------------------|
          E||----------------------------------|


--12------12------12------12------|
------14------14------14------14--|
----------------------------------|
----------------------------------|
----------------------------------|
----------------------------------|

(Faster! Faster!!)
--14------14------14------14------|
------15------15------15------15--|
----------------------------------|
----------------------------------|
----------------------------------|
----------------------------------|


--14---------------------|
--------15---------------|
--------18b--------------|   b= Bend 1/2 step
-------------------------|
-------------------------|
-------------------------|


           PM PM PM PM PM PM PM PM  
-----------------------------------|
-----------------------------------|
-----------0--0--0--0--0--0--0--0--|
-----------------------------------|
-----------------------------------|
-----------------------------------|


           PM PM PM PM PM PM PM PM  
-----------------------------------|
-----------------------------------|
-----------0--0--0--0--0--0--0--0--|
-----------------------------------|
-----------------------------------|
-----------------------------------|

(got our selves...)
--------------------------|
--------------------------|
--19----19----19----19----|  X4
--x-----x-----x-----x-----|
--17----17----17----17----|
--------------------------|


 (No time for Relaxation....)
----------------|
----------------|
--14--14--14----|
--x---x---x-----|
--12--12--12----|
----------------|



                 PM PM PM PM PM PM 
-------|-------|------------------|
-------|-------|------------------|
-------|-------|--0-0-0-0-0-0-0-0-|
-------|-------|------------------|
-------|-------|------------------|
-------|-------|------------------|


                 PM PM PM PM PM PM   
-----14--------|------------------|
---------15----|------------------|
---------------|--0-0-0-0-0-0-0-0-|
---------------|------------------|
---------------|------------------|
---------------|------------------|


                         
-----14--------|-------|-------|-------|
---------15----|-------|-------|-------|
---------------|-------|-------|-------|
---------------|-------|-------|-------|
---------------|-------|-------|-------|
---------------|-------|-------|-------|

(Watch Out!!)
  PM PM                 
---------------------|
---------------------|
--7--7---------------|
--7--7---------------|
--5--5---------------|
---------------------|

(Gotta go
    FAST!!)
--14------14------14------14------|
------15------15------15------15--|
----------------------------------|
----------------------------------|
----------------------------------|
----------------------------------|


--12------12------12------12------|
------14------14------14------14--|
----------------------------------|
----------------------------------|
----------------------------------|
----------------------------------|


--14------14-------14--14--14--14--|
------15------15-----15--15--15----|
-----------------------------------|
-----------------------------------|
-----------------------------------|
-----------------------------------|

 (Son.......ic...........X!!)
----------------------|
--15--------17--------|
----------------------|
----------------------|
----------------------|
----------------------|


--14------14------14------14------|
------15------15------15------15--|
----------------------------------|
----------------------------------|
----------------------------------|
----------------------------------|


--14------14------14------14------|
------15------15------15------15--|
----------------------------------|
----------------------------------|
----------------------------------|
----------------------------------|


--14------14-------14--14--14--14--|
------15------15-----15--15--15----|
-----------------------------------|
-----------------------------------|
-----------------------------------|
-----------------------------------|


---------------------||
--15~----------------||
---------------------||
---------------------||
---------------------||
---------------------||






Добавлено: 16.10.2013
Другие материалы по этой песне:

Страница создана 16.10.2013
http://primanota.ru/misc-cartoons/sonic-x-gotta-go-fast-theme-chords.htm
Привет, Гость.
Предлагаем пройти революционный курс по гитаре.
Подарок от PrimaNota.Ru, забирай!