PrimaNota.ru - самый крупный в мире бесплатный архив песенных текстов, аккордов, табулатур и нот


Misc Cartoons - Sonic X Theme - таба, видео

Регистрация Запомнить меня
Войти через:  Facebook Google Twitter Vk Yandex Mail.ru

Misc Cartoons - Sonic X Theme - таба, видео

Печатать
Просмотров: 240
I noticed that no one did a tab or anything on this song. This is the fist tab I've ever 
posted, so I'm likely to be subdued to errors. This is also the first song I've done by 
ear, so it was trial and error. If you have any suggestions, talk to me at 
jessiah.oneill@hotmail.com.


Gotta go fast                        Faster faster f-f-f faster
E|2---2---2---2---|----------------|2---2---2---2---|2--------------|
B|--3---3---3---3-|2---2---2---2---|--3---3---3---3-|---2h3---------|
G|----------------|--3---3---3---3-|----------------|---------------|
D|----------------|----------------|----------------|---------------|
A|----------------|----------------|----------------|---------------|
E|----------------|----------------|----------------|---------------|

Movin at speed of sound      Got ourselves a situation
E|----------------|----2-----------|----------------|----------------|
B|----------------|--2-------------|----------------|----------------|
G|----------------|----------------|4-0-4-0-4-0-4-0-|4-0-4-0-4-0-4-0-|
D|----------------|----------------|----------------|----------------|
A|----------------|----------------|----------------|----------------|
E|----------------|----------------|----------------|----------------|

Without any explaination             no time for relaxation
E|----------------|----------------|----------------|----------------|
B|4-0-4-0-4-0-4-0-|4-0-4-0-4-0-4-0-|4-0-0-----------|----------------|
G|----------------|----------------|----------------|----------------|
D|----------------|----------------|----------------|----------------|
A|----------------|----------------|----------------|----------------|
E|----------------|----------------|----------------|----------------|

Dont blink
E|2---2---2---2---|2---2---2---2---|----------------|----------------|
B|--3---3---3---3-|--3---3---3---3-|----------2-----|----------2-----|
G|----------------|----------------|------------2---|000000002---2---|
D|----------------|----------------|----------------|----------------|
A|----------------|----------------|----------------|----------------|
E|----------------|----------------|----------------|----------------|
         Sonic, hes on the run    Sonic, hes coming next
E|----------------|----------------|----------------|----------------|
B|----------------|----------------|----------------|----------------|
G|0000000---------|----------------|----------------|----------------|
D|----------------|----------------|----------------|----------------|
A|----------------|----------------|----------------|----------------|
E|----------------|----------------|----------------|----------------|


        Gotta go fast              Gotta go Faster faster f-f-f Faster
E|--------3---3---|3---3-----------|--------3---3---|3-3-3------------|
B|----------4---4-|--4---4-3---3---|3---3-----4---4-|-4-4--4-4~~~~~~~-|
G|----------------|----------4---4-|--4---4---------|-----------------|
D|----------------|----------------|----------------|-----------------|
A|----------------|----------------|----------------|-----------------|
E|----------------|----------------|----------------|-----------------|

           So Sonic nic sonic X    Gotta go fast
E|------------1---|3---3---3---3---|3---3---3---3---|3---3---3-3-3---|
B|--------4-------|--4---4---4---4-|--4---4---4---4-|--4---4--4-4--4-|
G|----------------|----------------|----------------|----------------|
D|----------------|----------------|----------------|----------------|
A|----------------|----------------|----------------|----------------|
E|----------------|----------------|----------------|----------------|


  X
E|----------------|----------------|
B|4~~~~~~~~~~~~~~~|4/0-------------|
G|----------------|----------------|
D|----------------|----------------|
A|----------------|----------------|
E|----------------|----------------|



H=hammer on. Also on electric guitar, you could try a strong bend up to the note 
instead of a hammer on.
/=Slide down to
~=Wiggle finger on note (sorry, I cant quite describe it to well)
Hope this helps
Добавлено: 26.11.2013
Другие материалы по этой песне:
  • Аккорды и текст

Страница создана 26.11.2013
http://primanota.ru/misc-cartoons/sonic-x-theme-chords.htm
Привет, Гость.
Предлагаем пройти революционный курс по гитаре.
Подарок от PrimaNota.Ru, забирай!