PrimaNota.ru - самый крупный в мире бесплатный архив песенных текстов, аккордов, табулатур и нот


Misc Cartoons - Bjornes Magasin Theme - таба

Регистрация Запомнить меня
Войти через:  Facebook Google Twitter Vk Yandex Mail.ru

Misc Cartoons - Bjornes Magasin Theme - таба

Печатать
Просмотров: 106
-------------------------------------------------------------------------------
                             SONG NAME - Band Name
-------------------------------------------------------------------------------
Tabbed by:Mårten Svenberg
E-mail:marten.svenberg@gmail.com

Tuning:

e|-------2-----0-----5-------------5---5---3-------2----3---5---2-----0------|
B|---------3-----------------------------------------------------------------|
G|-----------------------------2-------0-----------2------------3------------|
D|----0--------2---------------4---------------------------------------------|
A|---------------------------------------------------------------------------|
E|---------------------------------------------------------------------------|

e|--0--------------------------2------0----5-----------0---------------------|
B|-------3----2---0-------3-------3---------------3---------3---3-----2------|
G|--4---------2---0----------------------------------------------------------|
D|------------------------0--------------------------------------------------|
A|------------------------------------4-----------2-------------0------------|
E|---------------------------------------------------------------------------|



************************************

| /   slide up
| \   slide down
| h   hammer-on
| p   pull-off
| ~   vibrato
| +   harmonic
| x   Mute note
| b   Bend
| pb  Pre-bend
| br  Bend release
| pbr Pre-bend release
| brb Bend release bend

************************************
Добавлено: 08.09.2015
Другие материалы по этой песне:

Страница создана 15.10.2013
http://primanota.ru/misc-cartoons/bjornes-magasin-theme-chords.htm
Привет, Гость.
Предлагаем пройти революционный курс по гитаре.
Подарок от PrimaNota.Ru, забирай!