PrimaNota.ru - самый крупный в мире бесплатный архив песенных текстов, аккордов, табулатур и нот


Misc Cartoons - Mechanical Boy - таба, видео

Регистрация Запомнить меня
Войти через:  Facebook Google Twitter Vk Yandex Mail.ru

Misc Cartoons - Mechanical Boy - таба, видео

Печатать
Просмотров: 139
Уроки эстрадного вокала в Санкт-Петербурге
MECHANICAL BOY by Jack Wild from HR Puf-n-stuff
Key: G

Chords: D                G             Em9              D9
          D  E  F#     G  A  B  D          G    F#   E    D  E  F#   B
|-----------------|-----------------|----------------|----------------|
|-----------------|--------0--------|----------------|----------------|
|-----------------|--0--2-----------|----0-----------|----------------|
|-------0--2--4---|-----------0-----|---------4---2--|--0--2--4-------|
|-----------------|-----------------|----------------|-------------2--|
|-----------------|-----------------|----------------|----------------|
       I'm a me-    chanical boy          like  a  me-  chanical    toy. 

        D                       G9                      Am9
          D   A  G   A  D  D D      B A B  E     E
|-----------|------------------|--------------------|
|-----------|------------------|--------------------|
|-----------|------------------|--------------------|
|---------0-|------------0-0-0-|------------2----2--|
|-----------|--0------0--------|-----2-0-2----------|
|-----------|-----3------------|--------------------|
          I   follow  di-rections, whatever I'm told.  

        Bm9                     C9
  C B C  F#  F# E    D  C  D G    F#
|------------------|----------------|----------------|----------------|
|------------------|----------------|----------------|----------------|
|------------------|---------0------|----------------|----------------|
|--------4---4--2--|-0-----0------4-|----------------|----------------|
|–3–2–3------------|----3-----------|----------------|----------------|
|------------------|----------------|----------------|----------------|
I never get hot and I never get cold. 

     D9                  Am
  E  D  E  F# F# F# G F# G  A  G A
|------------------|---------------|----------------|----------------|
|------------------|---------------|----------------|----------------|
|------------------|-0---0--2--0-2-|----------------|----------------|
|–-2--0--2--4--4-4-|---4-----------|----------------|----------------|
|–-----------------|---------------|----------------|----------------|
|------------------|---------------|----------------|----------------|
I never have lived, so I never grow old

        D                       G
  B A B A B F# A    G  D  E  F#
|----------------|----------------|
|-0—--0---0------|----------------|
|—--2—--2------2-|--0-------------|
|------------4---|-----0--2--4----|
|----------------|----------------|
|----------------|----------------|
That's because I'm a mechanical boy.



I'm a me-chanical boy
like a me-chanical toy. 
I follow directions, 
whatever I'm told. 
I never get hot and 
i never get cold. 
I never have lived, 
so i never grow old
That's because I'm a mechanical boy.

I'm a me-chanical boy,
like a me-chanical toy.
I do as I'm ordered, 
I never ask why. 
I never can laugh and 
I never can cry. 
I never have lived, 
so i never shall die. 
That's because I'm a, 
cause I'm a, 
cause I'm a, 
cause I'm a, 
cause I'm a mechanical boy.

Добавлено: 06.09.2013
Другие материалы по этой песне:
  • Аккорды и текст

Страница создана 06.09.2013
http://primanota.ru/misc-cartoons/mechanical-boy-chords.htm
Привет, Гость.
Предлагаем пройти революционный курс по гитаре.
Подарок от PrimaNota.Ru, забирай!