PrimaNota.ru - самый крупный в мире бесплатный архив песенных текстов, аккордов, табулатур и нот


Misc Cartoons - K-on - Dont Say Lazy - бас-таба, видео

Регистрация Запомнить меня
Войти через:  Facebook Google Twitter Vk Yandex Mail.ru

Misc Cartoons - K-on - Dont Say Lazy - бас-таба, видео

Печатать
Просмотров: 320
Hey, this is the bass tab for the song! Enjoy! =)

CHORUS

|--------|--------|--------|--------|--------------|
|--------|--------|--------|--------|--------------|
|--------|--3(x8)-|--5(x8)-|--2(x8)-|--7(x4)-5(x4)-|
|--------|--------|--------|--------|--------------|

|--------|--------|--------------|--------|
|--------|--------|--------------|--------|
|--3(x8)-|--5(x8)/|--------------|--------|
|--------|--------|--0(x2)-0(x2)-|--0(x5)-|

|--------|--------|--------|--------------|
|--------|--------|--------|--------------|
|--3(x8)-|--5(x8)-|--2(x8)-|--7(x4)-5(x4)-|
|--------|--------|--------|--------------|

|--------|--------|--------------|------------|
|--------|--------|--------------|------------|
|--0(x8)-|--2(x8)-|--------------|------------|
|--------|--------|--0(x2)-0(x2)-|--0(x4)-10\-|

|--------------|-------------|  <-
|--------------|-------------|    | Repeat
|--------------|-------------|    | 4 times
|--0(x2)-0-0-0-|-0-0-0(x2)-1-|  <-

1ST VERSE

|--------------|--------|--------------|--------|
|--------------|--------|--------------|--------|
|--------------|--------|--------------|--------|
|--0(x2)-0(x2)-|--0(x2)-|--0(x2)-0(x2)-|--0(x4)-|
 
|--------------|-------------|--------------|-------------|
|--------------|-------------|--------------|-------------|
|--------------|-------------|--------------|-------------|
|--0(x2)-0-0-0-|-0-0-0(x2)-1-|--0(x2)-0-0-0-|-0-0-0(x2)-1-|

|--------------|--------|--------------|--------|
|--------------|--------|--------------|--------|
|--------------|--------|--------------|--------|
|--0(x2)-0(x2)-|--0(x2)-|--0(x2)-0(x2)-|--0(x4)-|
 
|--------------|-------------|--------------|-------------|
|--------------|-------------|--------------|-------------|
|--------------|-------------|--------------|-------------|
|--0(x2)-0-0-0-|-0-0-0(x2)-1-|--0(x2)-0-0-0-|-0-0-0(x2)-1-|

PRE-CHORUS

|--------|--------|--------|--------------|
|--------|--------|--------|--------------|
|--3(x8)-|--5(x8)-|--2(x8)-|--7(x4)-5(x4)-|
|--------|--------|--------|--------------|

|--12(x8)-|--14(x8)-|--------|--------------|
|--10(x8)-|--12(x8)-|--------|--------------|
|---------|---------|--7(x8)-|--7(x4)-5(x4)-|
|---------|---------|--------|--------------|

|--------|--------|--------|--------------|
|--------|--------|--------|--------------|
|--3(x8)-|--5(x8)-|--2(x8)-|--7(x4)-5(x4)-|
|--------|--------|--------|--------------|

|--------|--------|--------|-----------|
|--------|--------|--------|-----------|
|--0(x8)-|--1(x8)-|--2(x7)/|--/14(x7)\-|
|--------|--------|--------|-----------|

CHORUS

|--------|--------|--------|--------------|
|--------|--------|--------|--------------|
|--3(x8)-|--5(x8)-|--2(x8)-|--7(x4)-5(x4)-|
|--------|--------|--------|--------------|

|--------|---------|--------------|-----------|
|--------|---------|--------------|-----------|
|--3(x8)-|--5(x8)/-|--------------|-----------|
|--------|---------|--0(x2)-0(x2)-|--0(x3)-8\-|

|--------|--------|--------|--------------|
|--------|--------|--------|--------------|
|--3(x8)-|--5(x8)-|--2(x8)-|--7(x4)-5(x4)-|
|--------|--------|--------|--------------|

|--------|--------|--------------|------------|
|--------|--------|--------------|------------|
|--0(x8)-|--2(x8)-|--------------|------------|
|--------|--------|--0(x2)-0(x2)-|--0(x4)-12\-|

|--------------|-------------|  <-
|--------------|-------------|    | Repeat
|--------------|-------------|    | 4 times
|--0(x2)-0-0-0-|-0-0-0(x2)-1-|  <-

2ND VERSE

|--------------|--------|--------------|--------|   
|--------------|--------|--------------|--------|
|--------------|--------|--------------|--------|
|--0(x2)-0(x2)-|--0(x2)-|--0(x2)-0(x2)-|--0(x4)-|

|--------------|-------------|   <-
|--------------|-------------|    | Repeat
|--------------|-------------|    | 2 times
|--0(x2)-0-0-0-|-0-0-0(x2)-1-|   <-

|--------------|--------|--------------|------------|
|--------------|--------|--------------|------------|
|--------------|--------|--------------|------------|
|--0(x2)-0(x2)-|--0(x2)-|--0(x2)-0(x2)-|--0(x2)-10\-|
 
|--------------|-------------|   <-
|--------------|-------------|     | Repeat
|--------------|-------------|     | 2 times
|--0(x2)-0-0-0-|-0-0-0(x2)-1-|   <-

PRE-CHORUS

|--------|--------|--------|--------------|
|--------|--------|--------|--------------|
|--3(x8)-|--5(x8)-|--2(x8)-|--7(x4)-5(x4)-|
|--------|--------|--------|--------------|

|--12(x8)-|--14(x8)-|--------|----------|
|--10(x8)-|--12(x8)-|--------|----------|
|---------|---------|--7(x8)-|--7-7-5-5-|
|---------|---------|--------|---7-7-7--|

|--------|--------|--------|--------------|
|--------|--------|--------|--------------|
|--3(x8)-|--5(x8)-|--2(x8)-|--7(x4)-5(x4)-|
|--------|--------|--------|--------------|

|--------|--------|--------|----------------|
|--------|--------|--------|----------------|
|--0(x8)-|--1(x8)-|--2(x7)/|--/14(x5)-12----|
|--------|--------|--------|------------14\-|

CHORUS

|--------|--------|--------|--------------|
|--------|--------|--------|--------------|
|--3(x8)-|--5(x8)-|--2(x8)-|--7(x4)-5(x4)-|
|--------|--------|--------|--------------|

|--------|---------|--------------|------------|
|--------|---------|--------------|------------|
|--3(x8)-|--5(x8)/-|--------------|------------|
|--------|---------|--0(x2)-0(x2)-|--0(x3)-12\-|

|--------|--------|--------|--------------|
|--------|--------|--------|--------------|
|--3(x8)-|--5(x8)-|--2(x8)-|--7(x4)-5(x4)-|
|--------|--------|--------|--------------|

|--------|--------|--------------|------------|
|--------|--------|--------------|------------|
|--0(x8)-|--2(x8)-|--------------|------------|
|--------|--------|--0(x2)-0(x2)-|--0(x4)-12\-|

|--------------|--------------|  <-
|--------------|--------------|    | Repeat
|--------------|--------------|    | 4 times
|--0(x2)-0-0-0-|--0-0-0(x2)-1-|  <-

BRIDGE

|-----------|--------|
|-----------|--------|
|-----------|--------|
|--0________|____----|

|----------|------------------|  <-
|-------9/-|--14—-12----------|    | Repeat
|----------|----14—-12—14-----|    | 3 times
|--0-------|---------------12-|  <-

|----------|------------------|  <-
|-------9/-|--14—-12----------|    | Repeat
|----------|----14—-12—14-----|    | 7 times
|--0(x7)---|---------------12-|  <-

|--------|--------|
|--------|--------|
|--------|--------|
|--0(x8)-|--0-----|

PRE-CHORUS

|--------|--------|--------|--------------|
|--------|--------|--------|--------------|
|--3(x8)-|--5(x8)-|--2(x8)-|--7(x4)-5(x4)-|
|--------|--------|--------|--------------|

|--12(x8)-|--14(x8)-|--------|--------------|
|--10(x8)-|--12(x8)-|--------|--------------|
|---------|---------|--7(x8)-|--7(x4)-5(x4)-|
|---------|---------|--------|--------------|

|--------|--------|--------|--------------|
|--------|--------|--------|--------------|
|--3(x8)-|--5(x8)-|--2(x8)-|--7(x4)-5(x4)-|
|--------|--------|--------|--------------|

|--------|--------|--------|-----------|
|--------|--------|--------|-----------|
|--0(x8)-|--1(x8)-|--2(x7)/|--/14(x7)\-|
|--------|--------|--------|-----------|

MINI

|--16-14-----|
|-------16---|
|---------14-|
|------------|

CHORUS

|--------|--------|--------|--------------|
|--------|--------|--------|--------------|
|--3(x8)-|--5(x8)-|--2(x8)-|--7(x4)-5(x4)-|
|--------|--------|--------|--------------|

|--------|---------|--------------|------------|
|--------|---------|--------------|------------|
|--3(x8)-|--5(x8)/-|--------------|------------|
|--------|---------|--0(x2)-0(x2)-|--0(x3)-12\-|

|--------|--------|--------|--------------|
|--------|--------|--------|--------------|
|--3(x8)-|--5(x8)-|--2(x8)-|--7(x4)-5(x4)-|
|--------|--------|--------|--------------|

|--------|--------|--------------|------------|
|--------|--------|--------------|------------|
|--0(x8)-|--2(x8)-|--------------|------------|
|--------|--------|--0(x2)-0(x2)-|--0(x4)-12\-|

OUTRO

|--------------|--------------|  <-
|--------------|--------------|    | Repeat
|--------------|--------------|    | 2 times
|--0(x2)-0-0-0-|--0-0-0(x2)-1-|  <-

|--------------|--------------|
|--------------|--------------|
|--------------|--------------|
|--0(x2)-0-0-0-|--0-0-12-0-13~|

|--------------|--------------|
|--------------|--------------|
|--------------|--------------|
|--0(x2)-0-0-0-|--0-0-0(x2)-1-|
Добавлено: 04.07.2012
Другие материалы по этой песне:

Страница создана 04.07.2012
http://primanota.ru/misc-cartoons/k-on-dont-say-lazy-chords.htm
Привет, Гость.
Предлагаем пройти революционный курс по гитаре.
Подарок от PrimaNota.Ru, забирай!