PrimaNota.ru - самый крупный в мире бесплатный архив песенных текстов, аккордов, табулатур и нот


Misc Cartoons - K-on - My Love Is A Stapler - аккорды и текст, таба, видео

Регистрация Запомнить меня
Войти через:  Facebook Google Twitter Vk Yandex Mail.ru

Misc Cartoons - K-on - My Love Is A Stapler - аккорды и текст, таба, видео

Печатать
Просмотров: 466
K-on - My Love Is A Stapler
Misc Cartoons
Intro with the lead part:

   Bb                   F                 Bb                    C
e|------10-------------------------------------10------------------------------------|
B|-13------13-11-10-----10h11-10----------13------13-11-10------------10h11-10-------|
G|------------------12--------------------------------------12-12-11-----------10-12-|
D|---------------------------------10------------------------------------------------|
A|-----------------------------------------------------------------------------------|
E|-----------------------------------------------------------------------------------|



F
nande nan daro
              C         A7
ki ni naru yoru kimi he no
         Dm        C
kono omoibinsen ni ne
Bb          C
kai te miru yo

F
moshikashite
            C         A7
kimagure kamo shire nai
            Dm       C
sore nanoni maisuu dake
Bb         C
fuete yuku yo

          Bb        C        Am      D7
suki no kakuritsu waridasu keisan shiki
   Bb       C  -(C7)
areba ii no ni

       F             C     
KIRA KIRA hikaru negaigoto mo
        Dm             C
GUCHA GUCHA e taru nayamigoto mo
Gm          Am      Bb     C       
souda HOCCHIKISU de toji chao
      F              C       A7
hajimari dake ha karui nori de
       Dm            C
shiranai uchi ni atsuku natte
Gm            Am      Bb      C
mou hari ga nanda ka toora nai
                Bb - F - Bb - C
LALA mata ashita

F          
doushiyo kana
           C         A7
yomi kaesu no hazukashii
            Dm        C
are kore to binsen ni ne
Bb          C
kai ta kuse ni

F
kimochi goto
           C            A7
gomibako yuki ja nanda ka
              Dm        C
kono mune ga setsunai kara
Bb          C
motte yo kanna

         Bb        C        Am        D7
ima no kimochi wo arawasu jisho nimo nai
    Gm        C
kotoba sagasu yo


       F             C      
WAKU WAKU shichau keikaku to ka
       Dm            C
GUDA GUDA sugiru tenkai to ka
Gm          Am      Bb     C 
zenbu HOCCHIKISU de toji chao
      F              C       A7
kyou no dekigoto omoidashite
       Dm             C
itsumo kokoro ga KYUN to datte
Gm            Am      Bb      C
mou hari ga nai kara kawanakucha
                -
LALA mata ashita


Eb - Dm - C# - C


For the lead part:
   Bb                   F                 Bb                    C
e|------10-------------------------------------10------------------------------------|
B|-13------13-11-10-----10h11-10----------13------13-11-10------------10h11-10-------|
G|------------------12--------------------------------------12-12-11-----------10-12-|
D|---------------------------------10------------------------------------------------|
A|-----------------------------------------------------------------------------------|
E|-----------------------------------------------------------------------------------|


       F             C     
KIRA KIRA hikaru negaigoto mo
        Dm             C
GUCHA GUCHA e taru nayamigoto mo
Bb          Am      Gm     C       
souda HOCCHIKISU de toji chao
      F              C       A7
hajimari dake ha karui nori de
       Dm            C
shiranai uchi ni atsuku natte
Gm            Am      Bb      C
mou hari ga nanda ka toora nai
                Bb - F - Bb - C
LALA mata ashita
Добавлено: 31.07.2013
Другие материалы по этой песне:

Страница создана 19.03.2012
http://primanota.ru/misc-cartoons/k-on-my-love-is-a-stapler-chords.htm
Привет, Гость.
Предлагаем пройти революционный курс по гитаре.
Подарок от PrimaNota.Ru, забирай!