PrimaNota.ru - самый крупный в мире бесплатный архив песенных текстов, аккордов, табулатур и нот


Misc Cartoons - K-on - Fude Pen Boru Pen - аккорды и текст, видео

Регистрация Запомнить меня
Войти через:  Facebook Google Twitter Vk Yandex Mail.ru

Misc Cartoons - K-on - Fude Pen Boru Pen - аккорды и текст, видео

Печатать
Просмотров: 231
K-on - Fude Pen Boru Pen
Misc Cartoons
Hi everyone!
Here's one of my favorite HTT song and I was finally able to get the tab/chords!
Hope you enjoy playing it too!

I also play this using power chords:

   E        C#m        A         B        F#        F#m      
|-----|   |-----|   |-----|   |-----|   |-----|   |-----|         
|-----|   |-----|   |-----|   |-----|   |-----|   |-----|   
|--9--|   |--6--|   |-----|   |--4--|   |--3--|   |-----|   
|--9--|   |--6--|   |--7--|   |--4--|   |--4--|   |--4--|   
|--7--|   |--4--|   |--7--|   |--2--|   |--4--|   |--4--|   
|-----|   |-----|   |--5--|   |-----|   |--2--|   |--2--|   

 C#m/C     C#m/B     C#m/Bb      D        Eb
|-----|   |-----|   |-----|   |-----|   |-----|
|-----|   |-----|   |-----|   |-----|   |-----|
|--5--|   |--4--|   |--3--|   |--7--|   |--8--|
|--5--|   |--4--|   |--3--|   |--7--|   |--8--|
|--3--|   |--2--|   |--1--|   |--5--|   |--6--|
|-----|   |-----|   |-----|   |-----|   |-----|


Intro: C#m - E - B (2x)
       C#m - D - Eb 
Добавлено: 15.06.2013
Другие материалы по этой песне:

Страница создана 15.05.2012
http://primanota.ru/misc-cartoons/k-on-fude-pen-boru-pen-chords.htm
Привет, Гость.
Предлагаем пройти революционный курс по гитаре.
Подарок от PrimaNota.Ru, забирай!