PrimaNota.ru - самый крупный в мире бесплатный архив песенных текстов, аккордов, табулатур и нот


Misc Cartoons - Iron Man Tv Theme - таба, видео

Регистрация Запомнить меня
Войти через:  Facebook Google Twitter Vk Yandex Mail.ru

Misc Cartoons - Iron Man Tv Theme - таба, видео

Печатать
Просмотров: 260
Уроки эстрадного вокала в Санкт-Петербурге
IRON MAN TV THEME

This is the season 2 theme, aka the 1994 intro theme
from the IRON MAN animated series

EADGBE Tuning

SOLO
|-------------------------------------------------------------------------|
|--<5>-GRADUAL-DIVE-DOWN----13b14-BEND-UP-WITH----/14-14~~-14-------------|
|--<5>--WITH-FLOYD-ROSE-----13b14-FLOYD-ROSE------/15-15~~-15b16r15-------|
|-NATUTRAL------------------------GRADUAL-DIVE---------------------16~~~~-|
|-HARMONICS-------------------------DOWN----------------------------------|
|-------------------------------------------------------------------------|

|------------------------------------14-----------------------------------|
|--------------------------17b19~~~~~---14-17-------14-17-----------------|
|-------------DIVE-DOWN-----------------------16b18-------16b18r16--16----|
|-14h16p14h16-14~~~////-------------------------------------------16------|
|-------------------------------------------------------------------------|
|-------------------------------------------------------------------------|
   
             LOTS OF SLOPPY TAPPING W/ DELAY - T is for right hand tap
|------------------------T-----------T-----T-----T------------------------|
|------------------14h17-19p17p14-14-19p17-19p17-19p17p14-----------------|
|--14b16r14~~~~~~---------------------------------------------------------|
|-------------------------------------------------------------------------|
|-------------------------------------------------------------------------|
|-------------------------------------------------------------------------|

|-----T-----T------------T-----T------T----------T-----T------------------|
|-14--21p17-21p17--14h17-21p17-21p17--21p17p14---21/22-22p17-14h17--------|
|-------------------------------------------------------------------------|
|-------------------------------------------------------------------------|
|-------------------------------------------------------------------------|
|-------------------------------------------------------------------------|

|-T-----T----------T-----------T-----------T-------(19b21)--22b24~~~~~~~--|
|-22p17-22p17p14---24p17p14h17-24p17p14h17-24p14--------------------------|
|-------------------------------------------------------------------------|
|-------------------------------------------------------------------------|
|-------------------------------------------------------------------------|
|-------------------------------------------------------------------------|

|--19b21--21r19-21r19-21r19--17---------17-------------17-19b21r19~~~~~~--|
|---HOLD--HOLD-BEND-AND-THEN---19~~~~~-----19-17----19--------------------|
|----------RELEASE-TO-SOUND----------------------18-----------------------|
|---------LIKE-DESCENDING-------------------------------------------------|
|-----------SLIDES--------------------------------------------------------|
|-------------------------------------------------------------------------|

Добавлено: 25.11.2013
Другие материалы по этой песне:

Страница создана 24.07.2013
http://primanota.ru/misc-cartoons/iron-man-tv-theme-chords.htm
Привет, Гость.
Предлагаем пройти революционный курс по гитаре.
Подарок от PrimaNota.Ru, забирай!