PrimaNota.ru - самый крупный в мире бесплатный архив песенных текстов, аккордов, табулатур и нот


Misc Cartoons - Fullmetal Alchemist Brotherhood - Trishas Lullaby - бас-таба, видео

Регистрация Запомнить меня
Войти через:  Facebook Google Twitter Vk Yandex Mail.ru

Misc Cartoons - Fullmetal Alchemist Brotherhood - Trishas Lullaby - бас-таба, видео

Печатать
Просмотров: 130
FMAB - Trishas Lullaby

Tabbed by: Ashy (XxThreeCheersxX)
E-mail: burdickash@gmail.com

Tuning: Standard

Another song I'm posting for my FMA tribute.  Happy playing!

NOTE: there are multiple variations of this melody on the FMA soundtrack and this might not match
up perfectly with every variation; there may be differences in the key or rhythmic components.

Intro
G|----------------------------------------|
D|-10--8--10--11~------8~-----------------|
A|-----------------------------8--7~------|
E|----------------------------------------|

Main Melody
G|---------------------------------------------------------------------------------------|
D|---------------------------------8-10--8~----10~----11-10--13--11--10--8~------10~-----|
A|----8~----10-11--10~------11~----------------------------------------------------------|
E|-8-------------------------------------------------------------------------------------|

G|---------------------------------------------------------------------------------------|
D|---------------------------------8-10--8~------10~----11-10--8-------------------------|
A|----8~----10-11--10~------11~--------------------------------------11--10--8~----------|
E|-8-------------------------------------------------------------------------------------|

Interlude I
G|--------8-10--12~------------------------10~--------------------------------------------------------|
D|-11~------------------------10~----11-13----------------8~----10-11--10~----8--10~----11-10~--------|
A|----------------------------------------------------------------------------------------------------|
E|----------------------------------------------------------------------------------------------------|

G|--------8-10--12~----10--8~----8--10~------------------------------------------------|
D|-11~--------------------------------------------11~----10-8--------------------------|
A|------------------------------------------------------------11-10--8--8~------7~-----|
E|-------------------------------------------------------------------------------------|

Main Melody x 1

Interlude II
G|-----10---------------8--10~----------------------------------------------|
D|-11------8~------10---------------8~------8--10--8--10~------10~----------|
A|--------------------------------------------------------------------------|
E|--------------------------------------------------------------------------|

G|-----10---------------8--10~-------------------9--10--12--12~------10~--------|
D|-11------8~------10---------------8~------8-----------------------------------|
A|------------------------------------------------------------------------------|
E|------------------------------------------------------------------------------|

Main Melody (Down an Octave)
G|----------------------------------------------------------------------------|
D|----------------------------------------------------------------------------|
A|-3-------------------------1-3--1~------3~----4-3--6--4--3----------3~------|
E|----1~----3-4--3~----4~-------------------------------------6~--------------|

G|----------------------------------------------------------------------------|
D|----------------------------------------------------------------------------|
A|-3-------------------------1-3--1~------3~----4-3--1------------------------|
E|----1~----3-4--3~----4~-------------------------------4--3--1~--------------|

Interlude I (Down an Octave)
G|---------------------------------------------------------------------------------------|
D|---------3--5~---------------------3~--------------------------------------------------|
A|-4~----6----------------3~----4-6--------------1~----3-4-3~------1--3~------4-3~-------|
E|---------------------------------------------------------------------------------------|

G|-----------------------------------------------------------------------------|
D|---------3--5~------3-------------3~-----------------------------------------|
A|-4~----6---------------6~------6----------4~------3-1------------------------|
E|------------------------------------------------------4-3-1--1~------0~------|

Outro
G|----------------------------------------------------------------------------|
D|----------------------------------------------------------------------------|
A|-3-------------------------1-3--1~------3~----4-3--6--4--3----------3~------|
E|----1~----3-4--3~----4~-------------------------------------6~--------------|

G|----------------------|
D|----------------------|
A|-3--------------------|
E|----1~------1-3-1~----|

G|---------------------------------------------------------------------------|
D|---------------------------------------------------------------------------|
A|---------------------------------------------------------------------------|
E|-0--1~---------------------------------------------------------------------|


| /  slide up
| \  slide down
| h  hammer-on
| p  pull-off
| ~  vibrato
| +  harmonic
| x  Mute note
===============================================================================
Добавлено: 18.02.2016
Другие материалы по этой песне:
  • Аккорды и текст

Страница создана 18.02.2016
http://primanota.ru/misc-cartoons/fullmetal-alchemist-brotherhood-trishas-lullaby-chords.htm
Привет, Гость.
Предлагаем пройти революционный курс по гитаре.
Подарок от PrimaNota.Ru, забирай!