PrimaNota.ru - самый крупный в мире бесплатный архив песенных текстов, аккордов, табулатур и нот


Misc Cartoons - Spongebob Squarepants - All You Need Is Friends - бас-таба, видео

Регистрация Запомнить меня
Войти через:  Facebook Google Twitter Vk Yandex Mail.ru

Misc Cartoons - Spongebob Squarepants - All You Need Is Friends - бас-таба, видео

Печатать
Просмотров: 96
-------------------------------------------------------------------------------
               All You Need Is Friends - Spongebob Squarepants
-------------------------------------------------------------------------------
Tabbed by: StevenBeaven90
E-mail: stevenkotelnikov@Gmail.com
Feel free to email me if you have any questions about this tab or any other of my tabs.

Tuning: Standard

(0:12-0:20)
G|------0----------0-----------0---------------------------------------------|
D|--0-2--------------------0-2-------------0---------------------------------|
A|-------------------------------------0h3-----------------------------------|
E|--------3------3------3--------3-------------------------------------------|

(0:20-0:28)
G|--------------0------------------------------------------------------------|
D|------0-----------------0---0----0-2--4--2---------------------------------|
A|-3-----------------3-------------------------------------------------------|
E|----------3----------------------------------------------------------------|

(0:28-0:36)
G|-----0------------------------0--------------------------------------------|
D|-----------0---2------------0----2-----0-----------------------------------|
A|-3------------------0------------------------------------------------------|
E|----------------------3----------------------------------------------------|

(0:36-0:39)
G|---------------------------------------------------------------------------|
D|------------0--------------------------------------------------------------|
A|-3-----0h3-----------------------------------------------------------------|
E|---------------------------------------------------------------------------|

(0:39-0:42)No Bass

(0:42-0:50)
G|-------------0-------------------------------------------------------------|
D|-0---0-2--0----------------------------------------------------------------|
A|---------------------------------------------------------------------------|
E|---------------------------------------------------------------------------|

===============================================================================
| /  slide up
| \  slide down
| h  hammer-on
| x  Mute note
===============================================================================
Добавлено: 18.02.2016
Другие материалы по этой песне:
  • Аккорды и текст

Страница создана 18.02.2016
http://primanota.ru/misc-cartoons/spongebob-squarepants-all-you-need-is-friends-chords.htm
Привет, Гость.
Предлагаем пройти революционный курс по гитаре.
Подарок от PrimaNota.Ru, забирай!