PrimaNota.ru - самый крупный в мире бесплатный архив песенных текстов, аккордов, табулатур и нот


Misc Cartoons - Space Dandy - Dandy In Love - бас-таба, видео

Регистрация Запомнить меня
Войти через:  Facebook Google Twitter Vk Yandex Mail.ru

Misc Cartoons - Space Dandy - Dandy In Love - бас-таба, видео

Печатать
Просмотров: 84
-------------------------------------------------------------------------------
                             DANDY IN LOVE - Space Dandy
-------------------------------------------------------------------------------
Tabbed by: umar167
E-mail: contact me through twitter instead @umar167

After doing one tab, I was listening to this and thought I'd give this a go.
It wasn't too bad, and it's a fun song to play.

It can be played all on the E string, which I prefer, but there's an alternative
way to play it which uses the E and A strings.

Tuning: STANDARD EADG

G|------------------------------------------------------------------------------------|
D|------------------------------------------------------------------------------------|  Play once
A|------------------------------------------------------------------------------------|
E|--1--1--------5--------0--0--------1--------1--1-----1-3-5------8-----0--0--------1-|

G|------------------------------------------------------------------------------------|
D|------------------------------------------------------------------------------------|  Repeat this part
A|------------------------------------------------------------------------------------|  till end of song
E|--1--1--------5--------0--0--------1--------1--1-----1-3-5------8-----0--0-----0--1-|

ALTERNATIVE VERSION

G|------------------------------------------------------------------------------------|
D|------------------------------------------------------------------------------------|  Play once
A|--------------0------------------------------------------0------3-------------------|
E|--1--1-----------------0--0--------1--------1--1-----1-3--------------0--0--------1-|

G|------------------------------------------------------------------------------------|
D|------------------------------------------------------------------------------------|  Repeat this part
A|--------------0------------------------------------------0------3-------------------|  till end of song
E|--1--1-----------------0--0--------1--------1--1-----1-3--------------0--0-----0--1-|


| /  slide up
| \  slide down
| h  hammer-on
| p  pull-off
| ~  vibrato
| +  harmonic
| x  Mute note
===============================================================================
Добавлено: 18.02.2016
Другие материалы по этой песне:
  • Аккорды и текст

Страница создана 18.02.2016
http://primanota.ru/misc-cartoons/space-dandy-dandy-in-love-chords.htm
Привет, Гость.
Предлагаем пройти революционный курс по гитаре.
Подарок от PrimaNota.Ru, забирай!