PrimaNota.ru - самый крупный в мире бесплатный архив песенных текстов, аккордов, табулатур и нот


Misc Cartoons - Fullmetal Alchemist Brotherhood - Requiem For The Blind Alchemist - бас-таба

Регистрация Запомнить меня
Войти через:  Facebook Google Twitter Vk Yandex Mail.ru

Misc Cartoons - Fullmetal Alchemist Brotherhood - Requiem For The Blind Alchemist - бас-таба

Печатать
Просмотров: 167
Happiness ~Requiem For the Blind Alchemist~ (Composed by Akira Senjou)

Tabbed by: XxThreeCheersxX
E-mail: phantomhiveghost@gmail.com

Tuning: Drop D

This is the harp part transcribed for bass

G|---0-7~---8~----0-8~---7~-------3~----5~--------5~----3~--|
D|----------------------------------------------------------| x 2
A|-3------------1--------------6---------------5------------|
D|---------------------------6---------------5--------------|

G|-----0~---1~------5~---4~----0--7~----8~--------5~----4~--|
D|---------------------------------------------6--------5~--|
A|---3------------5----------3---------------5--------------|
D|-3------------5-------------------------------------------|

G|----------0~------0~---1~-------------5~------------------|
D|--------------------------------7~-------------7~-----8~--|
A|---1-3~---------3-------------5--------------5------------|
D|-2------------3-------------4--------------5--------------|

G|----------7~------5~------------2~----0~------------------|
D|-----9~---------------------------------------------------|
A|---7------------7-------------3---------------0-3~----2~--|
D|-6------------7--------5~---3---------------0-------------|

G|-----5~---4~--|
D|---3----------|
A|--------------|
D|-5------------|

G|---0-7~---8~----0-8~---7~-------3~----5~--------5~----3~--|
D|----------------------------------------------------------| 
A|-3------------1--------------6---------------5------------|
D|---------------------------6---------------5--------------|

G|-----0~---1~------5~---4~----0--7~----8~--------5~----4~--|
D|---------------------------------------------6--------5~--|
A|---3------------5----------3---------------5--------------|
D|-3------------5-------------------------------------------|

G|---0-7~---8~----0-5~---8~--|
D|---------------------------|
A|-3------------3------------|
D|---------------------------|
Добавлено: 05.08.2013
Другие материалы по этой песне:
  • Аккорды и текст

Страница создана 05.08.2013
http://primanota.ru/misc-cartoons/fullmetal-alchemist-brotherhood-requiem-for-the-blind-alchemist-chords.htm
Привет, Гость.
Предлагаем пройти революционный курс по гитаре.
Подарок от PrimaNota.Ru, забирай!