PrimaNota.ru - самый крупный в мире бесплатный архив песенных текстов, аккордов, табулатур и нот


Misc Cartoons - Highschool Of The Dead Theme - бас-таба, видео

Регистрация Запомнить меня
Войти через:  Facebook Google Twitter Vk Yandex Mail.ru

Misc Cartoons - Highschool Of The Dead Theme - бас-таба, видео

Печатать
Просмотров: 117
Tab by 金刚

Tuning: EADG, standard.

Intro: Play around with this.
G|--------------------------------------------|
D|--------------------------------------------|
A|--------------------------------------------|
E|----7~----4~----0~----7~----10-10~----7~----|

Chorus: This is technically the intro.. but it's the notes for the chorus. Very fast
here, slide down at the end of both, do it quick on the first one so you can jump quickly
into the next set of tabs. You probably hurt your fingers here, so I recommend a pick to 
keep at the end of the guitar (if you can grab it quick enough).
G|--------------------------------------------------------------------------|
D|--------------------------------------------------------------------------|
A|--------------------------------------------------------------------------|
E|----------7(x8)--3(x8)--10(x8)--5(x8)--7(x8)--0(x8)--3(x8)--5(x4)\--------|

G|--------------------------------------------------------------------------|
D|--------------------------------------------------------------------------|
A|--------------------------------------------------------------------------|
E|----------7(x8)--3(x8)--10(x8)--5(x8)--7(x8)--0(x8)--3(x8)--5(x8)\--------|


Verse 1: listen to the song and you'll know where these fit in.
G|------------------------------|
D|------------------------------|
A|------------------------------|
E|----7----5----4----33---------| (x4)

G|------------------------------------------------------|
D|------------------------------------------------------|
A|------------------------------------------------------|
E|--7(x8)-5(x8)-7(8)\/7(x8)-5(x8)-7(x8)-10(x8)-7~-5~----| (take it slow)

Chorus
G|--------------------------------------------------------------------------|
D|--------------------------------------------------------------------------|
A|--------------------------------------------------------------------------|
E|----------7(x8)--3(x8)--10(x8)--5(x8)--7(x8)--0(x8)--3(x8)--5(x4)---------|

G|--------------------------------------------------------------------------|
D|--------------------------------------------------------------------------|
A|--------------------------------------------------------------------------|
E|----------7(x8)--3(x8)--10(x8)--5(x8)--7(x8)--0(x8)--3(x8)--5(x8)---------|

Verse 2
G|------------------------------|
D|------------------------------|
A|------------------------------|
E|----7----5----4----33---------| (x4)

G|------------------------------------------------|
D|------------------------------------------------|
A|------------------------------------------------|
E|--7(x8)-5(x8)-7(x16)\/0(x8)-5(x8)-7(x8)-10(x8)--|

Bridge
G|----------------------|
D|----------------------|
A|----------------------|
E|----7~----5~----0~----|

Chorus 3: Don't have to concern about slides here, except for the last one, as it is continuous.
G|--------------------------------------------------------------------------|
D|--------------------------------------------------------------------------|
A|--------------------------------------------------------------------------|
E|----------7(x8)--3(x8)--10(x8)--5(x8)--7(x8)--0(x8)--3(x8)--5(x4)---------|

G|--------------------------------------------------------------------------|
D|--------------------------------------------------------------------------|
A|--------------------------------------------------------------------------|
E|----------7(x8)--3(x8)--10(x8)--5(x8)--7(x8)--0(x8)--3(x8)--5(x8)---------|

G|--------------------------------------------------------------------------|
D|--------------------------------------------------------------------------|
A|--------------------------------------------------------------------------|
E|----------7(x8)--3(x8)--10(x8)--5(x8)--7(x8)--0(x8)--3(x8)--5(x8)---------|

G|--------------------------------------------------------------------------|
D|--------------------------------------------------------------------------|
A|--------------------------------------------------------------------------|
E|----------7(x8)--3(x8)--10(x8)--5(x8)--7(x8)--0(x8)--3(x8)--5(x8)---------|

G|--------------------------------------------------------------------------|
D|--------------------------------------------------------------------------|
A|--------------------------------------------------------------------------|
E|----------7(x8)--3(x8)--10(x8)--5(x8)--7(x8)--0(x8)--3(x8)--5(x4)---------|

G|--------------------------------------------------------------------------|
D|--------------------------------------------------------------------------|
A|--------------------------------------------------------------------------|
E|----------7(x8)--3(x8)--10(x8)--5(x8)--7(x8)--0(x8)--3(x8)--5(x8)---------|

G|--------------------------------------------------------------------------|
D|--------------------------------------------------------------------------|
A|--------------------------------------------------------------------------|
E|----------7(x8)--3(x8)--10(x8)--5(x8)--7(x8)--0(x8)--3(x8)--5(x4)---------|

G|--------------------------------------------------------------------------|
D|--------------------------------------------------------------------------|
A|--------------------------------------------------------------------------|
E|----------7(x8)--3(x8)--10(x8)--5(x8)--7(x8)--0(x8)--3(x8)--5(x8)\--------|

| /  slide up
| \  slide down
| h  hammer-on
| p  pull-off
| ~  vibrato
| +  harmonic
| x  Mute note
Добавлено: 13.10.2013
Другие материалы по этой песне:
  • Аккорды и текст

Страница создана 17.06.2013
http://primanota.ru/misc-cartoons/highschool-of-the-dead-theme-chords.htm
Привет, Гость.
Предлагаем пройти революционный курс по гитаре.
Подарок от PrimaNota.Ru, забирай!