PrimaNota.ru - самый крупный в мире бесплатный архив песенных текстов, аккордов, табулатур и нот


Misc Cartoons - The Cleveland Show - бас-таба, видео

Регистрация Запомнить меня
Войти через:  Facebook Google Twitter Vk Yandex Mail.ru

Misc Cartoons - The Cleveland Show - бас-таба, видео

Печатать
Просмотров: 147
-------------------------------------------------------------------------------
                             Cleveland Show Bass TAb
-------------------------------------------------------------------------------
Tabbed by: Chris Fletcher       
E-mail: cfletcher92@gmnail.com

Tuning: EADG

G|--------------------------------------------------------------------------|
D|--------------------------------------------------------------------------|
A|-0-0-0-00--------------------5-5---2--24--5-5---2---5-5---2--0-0-0--------|
E|--------------------------------------------------------------------------|

G|-----10-----10-----11------11------7------7-----5-----5-------------------|
D|--------------------------------------------------------------------------|
A|--8------8------7------7--------5-----5------3-----3----------------------|
E|--------------------------------------------------------------------------|

G|-----10-----10-----11------11---------------------------------------------|
D|--------------------------------------------------------------------------|
A|--8------8------7------7--------------------------------------------------|
E|--------------------------------5-5--55-----------------------------------|

G|---------------7--7-4-------------------------------------2----2----------|
D|----------------------7---------------------------------------------------|
A|-5-5---2--2----------------5-5---2--2-----7-7-7---------0----0------------|
E|--------------------------------------------------------------------------|

G|--------------------------------------------------------------------------|
D|--------------------------------------------------------------------------|
A|-------5------------------------------------------------------------------|
E|-5-5----------------------------------------------------------------------|



| /  slide up
| \  slide down
| h  hammer-on
| p  pull-off
| ~  vibrato
| +  harmonic
| x  Mute note
============================================================================
Добавлено: 10.08.2013
Другие материалы по этой песне:
  • Аккорды и текст

Страница создана 10.08.2013
http://primanota.ru/misc-cartoons/the-cleveland-show-chords.htm
Привет, Гость.
Предлагаем пройти революционный курс по гитаре.
Подарок от PrimaNota.Ru, забирай!