PrimaNota.ru - самый крупный в мире бесплатный архив песенных текстов, аккордов, табулатур и нот


Mindless Self Indulgence - Mastermind - текст песни, таба, бас-таба, видео

Регистрация Запомнить меня
Войти через:  Facebook Google Twitter Vk Yandex Mail.ru

Mindless Self Indulgence - Mastermind - текст песни, таба, бас-таба, видео

Печатать
Просмотров: 196
-------------------------------------------------------------------------------
			     Mastermind - Mindless Self Indulgence
-------------------------------------------------------------------------------
Tabbed by: Forsakensoul
Email: microdbz711@yahoo.com

[The other tab put up for this is just about right, I've listened to the song like a 
times and I'm sure this is correct way. Listen for timing throughout the entire song. Also, 
Righ? from MSI only uses 5-string guitars. Hence the absence of the high "e". ^_^ Enjoy! MSI FTW!]

Tuning: Standard

"I am the mastermind..."
B|----------------------|
G|----------------------|   x2
D|---4------4------4----|
A|---4------4------4----|
E|---2------2------2----|

"-BINE! Your time has come..."

|----------------------------------------------|
|----------------------------------------------|   x4
|---4----------7----------2----------5---------|
|---4---x8-----7---x3-----2---x3-----5---x2----|
|---2----------5----------0----------3---------|

"Thats right..."
|---------------|
|---------------|
|---4~-----0~---|
|---4~-----0~---|
|---2~-----0~---|

"I am the mastermind..."
|----------------------|
|----------------------|   x2
|---4------4------4----|
|---4------4------4----|
|---2------2------2----|

"-NIED! Your time has come..."
|----------------------------------------------|
|----------------------------------------------|   x4
|---4----------7----------2----------5---------|
|---4---x8-----7---x3-----2---x3-----5---x2----|
|---2----------5----------0----------3---------|

"Thats right..."
|---------------|
|---------------|
|---4~-----0~---|
|---4~-----0~---|
|---2~-----0~---|

Bridge
|-----------------------|
|-----------------------|   x2
|---4----4----4----4----|
|---4----4----4----4----|
|---2----2----2----2----|

"I am the mastermind..."
|----------------------|
|----------------------|   x2
|---4------4------4----|
|---4------4------4----|
|---2------2------2----|

"-BYE! Your time has come..."
|----------------------------------------------|
|----------------------------------------------|   x4
|---4----------7----------2----------5---------|
|---4---x8-----7---x3-----2---x3-----5---x2----|
|---2----------5----------0----------3---------|

"Thats right..."
|---------------|
|---------------|
|---4~-----0~---|
|---4~-----0~---|
|---2~-----0~---|
~~~~~~~End~~~~~~~~

Synth((Intro/"Whats that ruckus?"))[tabbed it out, just if you get bored XP]

B|-7b-8b-9b-10b-7----|
G|-------------------|  ((repeat as necessary))
D|-------------------|
A|-------------------|
E|-------------------|

| x Repeat
| b Bend
| ~ Let Ring
===============================================================================
(Lyrics provided by azlyrics.com)
Добавлено: 23.11.2013
Другие материалы по этой песне:
  • Аккорды и текст

Страница создана 23.11.2013
http://primanota.ru/mindless-self-indulgence/mastermind-chords.htm
Привет, Гость.
Предлагаем пройти революционный курс по гитаре.
Подарок от PrimaNota.Ru, забирай!