PrimaNota.ru - самый крупный в мире бесплатный архив песенных текстов, аккордов, табулатур и нот


Metallica - That Was Just Your Life - текст песни, таба, бас-таба, видео

Регистрация Запомнить меня
Войти через:  Facebook Google Twitter Vk Yandex Mail.ru

Metallica - That Was Just Your Life - текст песни, таба, бас-таба, видео

Печатать
Просмотров: 971
Уроки эстрадного вокала в Санкт-Петербурге
Tabbed by Dragon 

Standard tuning 

I know there are a lot of mistakes. if you know what something should be,
leave a comment/correction and ill periodically check and give you credit.
E-------------------------------------------------------| 
B-17-15-12-17-15-12-17-15-12-17-15-12-17-15-12-17-15-12-|  2x 
G-------------------------------------------------------| 
D-------------------------------------------------------| 
A-------------------------------------------------------| 
E-------------------------------------------------------| 

After the second time immediately play 
E---------------------------------17b19-------------------17b19-12-------------------------------|
B-17b19-17b19---17p15---------15---------17p15---------15---------15-12--12----------------------|
G--------------------16-14-16-----------------16-14-16-----------------15---14-12-12-------------|
D--------------------------------------------------------------------------------14--14---12-----|
A--------------------------------------------------------------------------------------------15-14
E------------------------------------------------------------------------------------------------|
W/ lots of wah 
E---------------------------------|
B---------------------------------| 2x
G-4p0h4p0h5p0h5p0h4p0h4p0h5p0h5p--|
D---------------------------------|
A---------------------------------|
E---------------------------------|

E---------------------------------------------|
B---------------------------------------------|
G-0h07p0h7p0h5p0h5p0h4p0h4p0h5----------------| 
D------------------------------0(whammy dive)-| 
A---------------------------------------------|
E---------------------------------------------|

E----------------------------------------------------
B----------------------------------------------------
G----10h12p10----10h12p10----10p12h10-----10h12p10---
D--12---------12----------12-----------12------------
A----------------------------------------------------
E----------------------------------------------------

wah makes it hard to hear this part, not sure what it really is, but try to end like it says
E--------------------------------|
B--------------------------------|
G--------------------------------|
D---------12---------------------|
A---14-15----14--12--------------|
E----------------12(whammy dive)-|
Добавлено: 10.07.2012
Другие материалы по этой песне:

Страница создана 22.02.2012
http://primanota.ru/metallica/that-was-just-your-life-chords.htm
Привет, Гость.
Предлагаем пройти революционный курс по гитаре.
Подарок от PrimaNota.Ru, забирай!