PrimaNota.ru - самый крупный в мире бесплатный архив песенных текстов, аккордов, табулатур и нот


Metallica - The End Of The Line - текст песни, таба, бас-таба, видео

Регистрация Запомнить меня
Войти через:  Facebook Google Twitter Vk Yandex Mail.ru

Metallica - The End Of The Line - текст песни, таба, бас-таба, видео

Печатать
Просмотров: 840
e|------------------------------------------------|
B|------------------------------------------------|
G|------------------------------------------------|
D|-3----2-----5-5----2----------------------------|
A|-3----2-----5-5----2--8-8-8-7-7-10-10-10-8-7-5h7|
E|-1----0--0--3-3----0----------------------------|
   Repeat a couple of times

e|------------------------------------------------|
B|------------------------------------------------|
G|------------------------------------------------|
D|-3-3-2-----5-5----------------------------------|
A|-3-3-2-----5-5----2-2-2-2-2-2-2-2---------------| 
E|-1-1-0--0--3-3----0-0-0-0-0-0-0-0---------------|
                P.M.|--------------|

e|------------------------------------------------|
B|------------------------------------------------|
G|------------------------------------------------|
D|-7----6----9--9---7-----------------------------|
A|-7----6----9--9---7-----------------------------|
E|-5----4----7--7---5-----------------------------|


e|------------------------------------------------|
B|------------------------------------------------|
G|------------------------------------------------|
D|-9----8----11-11--9----------------2------------|
A|-9----8--- 11-11--9----------------2------------|
E|-7----6----9--9---7----------------0------------|

 
Добавлено: 19.07.2012
Другие материалы по этой песне:

Страница создана 12.03.2012
http://primanota.ru/metallica/the-end-of-the-line-chords.htm
Привет, Гость.
Предлагаем пройти революционный курс по гитаре.
Подарок от PrimaNota.Ru, забирай!