PrimaNota.ru - самый крупный в мире бесплатный архив песенных текстов, аккордов, табулатур и нот


Metallica - Saint Anger - текст песни, таба, видео

Регистрация Запомнить меня
Войти через:  Facebook Google Twitter Vk Yandex Mail.ru

Metallica - Saint Anger - текст песни, таба, видео

Печатать
Просмотров: 416
Уроки эстрадного вокала в Санкт-Петербурге
Artist: Metallica
Song: St. Anger
Album: St. Anger
Tabbed By: Mike Sumaya III
z_pyro40@hotmail.com
5-29-03

Metallica's new single Saint Anger. I haven't seen any other tabs of this yet, so I stayed up til about midnight to do this. 
It's about as accurate as I can get it. I can't figure out the clean chorus though, someone else will have to do it.

Note: This tab is done to the music video. The radio/album version is longer because it repeats these riffs more ofter, 
but the riffs are the same.

Tuning: Drop C (Drop D down one whole step)

Play distortion on damn near everything (duh)
x1
d----------------------------------------------
a----------------------------------------------
f----------------------------------------------
c----------------------------------------------
g--------------------------3-3-3---------------
C--0-1-2-0-2p1-0-2p1-0-1-2---------------------
PM - - - -     -     - - -

x1
d----------------------------------------------
a----------------------------------------------
f----------------------------------------------
c----------------------------------------------
g----------------------------3-3-3-------------
C--0-1-2-2-0-2p1-0-2p1-0-1-2-------------------
PM - - - - -     -     - - -

x2
d----------------------------------------------
a----------------------------------------------
f----------------------------------------------
c----------------------------3-3-3-------------
g----1-2-2-0-2p1-0-2p1-0-1-2-3-3-3-------------
C--0-1-2-2-0-2p1-0-2p1-0-1-2-------------------
PM - - - - -     -     - - -

x1
d-----------------------------------------------
a-----------------------------------------------
f-----------------------------------------------
c----------------------------------------3-3-3--
g--0-1-2-2-0-2p1p0-2p1p0-2p1p0-2p1p0-----3-3-3--
C--0-1-2-2-0-2p1p0-2p1p0-2p1p0-2p1p0-0-1--------
PM - - - - -                         - - 

x2
d-----------------------------------
a-----------------------------------
f-----------------------------------
c----------------------------3-3-3--
g--0-1-2-2-0-2p1p0-2p1p0-----3-3-3--
C--0-1-2-2-0-2p1p0-2p1p0-0-1--------
PM - - - - -             - - 

x1
d-----------------------------------------------
a-----------------------------------------------
f-----------------------------------------------
c----------------------------------------3-3-3--
g--0-1-2-2-0-2p1p0-2p1p0-2p1p0-2p1p0-----3-3-3--
C--0-1-2-2-0-2p1p0-2p1p0-2p1p0-2p1p0-0-1--------
PM - - - - -                         - - 

x8
d-----------------------------------
a-----------------------------------
f-----------------------------------
c----------------------------3-3-3--
g--0-1-2-0-2-1-0-2-1-0-0-1-2-3-3-3--
C--0-1-2-0-2-1-0-2-1-0-0-1-2--------

x1
d---------------------------
a---------------------------
f---------------------------
c---------------------------
g--2-1-0-2-1-0-2-1-0-2-1-0--
C--2-1-0-2-1-0-2-1-0-2-1-0--
PM - - - - - - - - - - - -


(Chorus) ??


Verse 1
x4                                             \
d----------------------------------------------- \
a----------------------------------------------- I
f----------------------------------------------- I
c--77777777777777775555555533332222------------- I (Guitar 1)
g--55555555555555553333333311110000------------- I
C----------------------------------------------- I
                                                 I Play at same time
x4                                               I  
d----------------------------------------------- I
a----------------------------------------------- I
f----------------------------------------------- I (Guitar 2)
c--77777777777777775555555599999999------------- I
g--55555555555555553333333377777777------------- I
C----------------------------------------------- /
                                               /
x1
d-----------------------------------------------
a-----------------------------------------------
f-----------------------------------------------
c--5--------------5----3--2---------------------
g--3----00--00----3----1--0---------------------
C--0----00--00---------------------------------- 
PM      --  --

x7                                             \
d----------------------------------------------- \
a----------------------------------------------- I
f----------------------------------------------- I
c--77777777777777775555555533332222------------- I (Guitar 1)
g--55555555555555553333333311110000------------- I
C----------------------------------------------- I
                                                 I Play at same time
x7                                               I  
d----------------------------------------------- I
a----------------------------------------------- I
f----------------------------------------------- I (Guitar 2)
c--77777777777777775555555599999999------------- I
g--55555555555555553333333377777777------------- I
C----------------------------------------------- /
                                               /

x1
d------------------------------------------------
a------------------------------------------------
f------------------------------------------------
c--5---------------------------------------------
g--3----00--00--00--00---------------------------
C--0----00--00--00--00--------------------------- 
PM      --  --  --  --

x1
d----------------------------------------------
a----------------------------------------------
f----------------------------------------------
c----------------------------3-3-3-------------
g----1-2-2-0-2p1-0-2p1-0-1-2-3-3-3-------------
C--0-1-2-2-0-2p1-0-2p1-0-1-2-------------------
PM - - - - -     -     - - -


x4
d-----------------------------------
a-----------------------------------
f-----------------------------------
c----------------------------3-3-3--
g--0-1-2-0-2-1-0-2-1-0-0-1-2-3-3-3--
C--0-1-2-0-2-1-0-2-1-0-0-1-2--------

x1
d---------------------------
a---------------------------
f---------------------------
c---------------------------
g--2-1-0-2-1-0-2-1-0-2-1-0--
C--2-1-0-2-1-0-2-1-0-2-1-0--


(Chorus)


Verse 2
x4                                             \
d----------------------------------------------- \
a----------------------------------------------- I
f----------------------------------------------- I
c--77777777777777775555555533332222------------- I (Guitar 1)
g--55555555555555553333333311110000------------- I
C----------------------------------------------- I
                                                 I Play at same time
x4                                               I  
d----------------------------------------------- I
a----------------------------------------------- I
f----------------------------------------------- I (Guitar 2)
c--77777777777777775555555599999999------------- I
g--55555555555555553333333377777777------------- I
C----------------------------------------------- /
                                               /

x1
d-----------------------------------------------
a-----------------------------------------------
f-----------------------------------------------
c--5--------------5----3--2---------------------
g--3----00--00----3----1--0---------------------
C--0----00--00---------------------------------- 
PM      --  -- 

x7                                             \
d----------------------------------------------- \
a----------------------------------------------- I
f----------------------------------------------- I
c--77777777777777775555555533332222------------- I (Guitar 1)
g--55555555555555553333333311110000------------- I
C----------------------------------------------- I
                                                 I Play at same time
x7                                               I  
d----------------------------------------------- I
a----------------------------------------------- I
f----------------------------------------------- I (Guitar 2)
c--77777777777777775555555599999999------------- I
g--55555555555555553333333377777777------------- I
C----------------------------------------------- /
                                               /
x1
d------------------------------------------------
a------------------------------------------------
f------------------------------------------------
c--5---------------------------------------------
g--3----00--00--00--00---------------------------
C--0----00--00--00--00--------------------------- 
PM      --  --  --  --

x1
d----------------------------------------------
a----------------------------------------------
f----------------------------------------------
c----------------------------3-3-3-------------
g----1-2-2-0-2p1-0-2p1-0-1-2-3-3-3-------------
C--0-1-2-2-0-2p1-0-2p1-0-1-2-------------------
PM - - - - -     -     - - -

x16
d-----------------------------------
a-----------------------------------
f-----------------------------------
c----------------------------3-3-3--
g--0-1-2-0-2-1-0-2-1-0-0-1-2-3-3-3--
C--0-1-2-0-2-1-0-2-1-0-0-1-2--------

x1
d---------------------------
a---------------------------
f---------------------------
c---------------------------
g--2-1-0-2-1-0-2-1-0-2-1-0--
C--2-1-0-2-1-0-2-1-0-2-1-0--

x7                                             \
d----------------------------------------------- \
a----------------------------------------------- I
f----------------------------------------------- I
c--77777777777777775555555533332222------------- I (Guitar 1)
g--55555555555555553333333311110000------------- I
C----------------------------------------------- I
                                                 I Play at same time
x7                                               I  
d----------------------------------------------- I
a----------------------------------------------- I
f----------------------------------------------- I (Guitar 2)
c--77777777777777775555555599999999------------- I
g--55555555555555553333333377777777------------- I
C----------------------------------------------- /
                                               /

x1
d------------------------------------------------
a------------------------------------------------
f------------------------------------------------
c--5---------------------------------------------
g--3----00--00--00--00---------------------------
C--0----00--00--00--00--------------------------- 
PM      --  --  --  --

x1
d----------------------------------------------
a----------------------------------------------
f----------------------------------------------
c----------------------------3-3-3-------------
g----1-2-2-0-2p1-0-2p1-0-1-2-3-3-3-0-----------
C--0-1-2-2-0-2p1-0-2p1-0-1-2-------0-----------
PM - - - - -     -     - - -



Добавлено: 06.12.2013
Другие материалы по этой песне:
  • Аккорды и текст

Страница создана 06.12.2013
http://primanota.ru/metallica/saint-anger-chords.htm
Привет, Гость.
Предлагаем пройти революционный курс по гитаре.
Подарок от PrimaNota.Ru, забирай!