PrimaNota.ru - самый крупный в мире бесплатный архив песенных текстов, аккордов, табулатур и нот


Metallica - Ron Mcgovneys 82 Garage Demo (album) - таба, видео

Регистрация Запомнить меня
Войти через:  Facebook Google Twitter Vk Yandex Mail.ru

Metallica - Ron Mcgovneys 82 Garage Demo (album) - таба, видео

Печатать
Просмотров: 268
Уроки эстрадного вокала в Санкт-Петербурге
1.	"Hit the Lights" - 4:19
2.	"Jump in the Fire" - 4:25
3.	"Killing Time" - 2:36
4.	"Let It Loose" - 3:10
5.	"Sucking My Love" - 6:43
6.	"The Prince" - 5:00
7.	"Am I Evil?" - 7:43
8.	"Helpless" - 6:13
1. Hit the lights

Line up

James Hetfield, Lloyd grant, Lars Ulrich, Ron Mcgovney.

E||------------------|----------------------|------------|------------------|
B||------------------|----------------------|------------|------------------|
G||------------------|----------------------|------------|------------------|
D||--2---------------|--2----2----2----2----|--2----2----|--2---------------|
A||--2---------------|--2----2----2----2----|--2----2----|--2---------------|
E||--0---------------|--0----0----0----0----|--0----0----|--0---------------|
//
|------------------|-----------------|------------------|
|------------------|-----------------|------------------|
|------------------|-----------------|------------------|
|------------------|-----------------|------------------|
|--4---------------|-----------------|--x\--------------|
|--2---------------|-----------------|--x\--------------|
//
|-----------------------------|-------------------------------|
|-----------------------------|-------------------------------|
|-----------------5--7-7---0--|-------------------------------|
|--5--------------5--7-7---0--|--5--------------7p5---5-------|
|--0--0-0-0-0-0-0-------------|--0--0-0-0-0-0-0-----7----6-7--|
|-----------------------------|-------------------------------|
\
|------------------------------|----------------------------|
|------------------------------|----------------------------|
|-----------------5--7-7--0-0--|--5-------------------7b----|
|--5--------------5--7-7--0-0--|--5-------------------------|
|--0--0-0-0-0-0-0--------------|-----0-0-0-0-0-0-6h7--------|
|------------------------------|----------------------------|

|-----------------------------|-------------------------------|
|-----------------------------|-------------------------------|
|-----------------5--7-7---0--|--5----------------------------|
|--5--------------5--7-7---0--|--5--------------7p5---5-------|
|--0--0-0-0-0-0-0-------------|-----0-0-0-0-0-0-----7----6-7--|
|-----------------------------|-------------------------------|

|------------------------------|----------------------------------|
|------------------------------|----------------------------------|
|-----------------5--7-7--0-0--|----------------------------------|
|--5--------------5--7-7--0-0--|--5-------------------------------|
|--0--0-0-0-0-0-0--------------|--0--0-0-0-0-0--------------------|
|------------------------------|----------------------------------|

|------------------------------|-------------------------------|
|------------------------------|-------------------------------|
|-----------------5--7-7--0-0--|-------------------------------|
|--5--------------5--7-7--0-0--|--5--------------7p5---5-------|
|--0--0-0-0-0-0-0--------------|--0--0-0-0-0-0-0-----7----6-7--|
|------------------------------|-------------------------------|

|------------------------------|-------------------------------|
|------------------------------|-------------------------------|
|-----------------5--7-7--0-0--|--5----------------------------|
|--5--------------5--7-7--0-0--|--5--------------7p5---5-------|
|--0--0-0-0-0-0-0--------------|-----0-0-0-0-0-0-----7----6-7--|
|------------------------------|-------------------------------|
Verses
|----------------------|-----------------------|------------------------------|
|----------------------|-----------------------|------------------------------|
|--7--7----------------|--7--7-----------------|-----------------5--7-7--0-0--|
|--7--7------5--5------|--7--7-----------------|--5--------------5--7-7--0-0--|
|--5--5------5--5------|--5--5------3---2------|--0--0-0-0-0-0-0--------------|
|------------3--3------|--------------------3--|------------------------------|
No life till leather...
|-------------------------------|------------------------------|
|-------------------------------|------------------------------|
|-------------------------------|-----------------5--7-7--0-0--|
|--5--------------7p5---5-------|--5--------------5--7-7--0-0--|
|--0--0-0-0-0-0-0-----7----6-7--|--0--0-0-0-0-0-0--------------|
|-------------------------------|------------------------------|


|-------------------------------|----------------------|-----------------------|
|-------------------------------|----------------------|-----------------------|
|--5----------------------------|--7--7----------------|--7--7-----------------|
|--5--------------7p5---5-------|--7--7------5--5------|--7--7-----------------|
|-----0-0-0-0-0-0-----7----6-7--|--5--5------5--5------|--5--5------3---2------|
|-------------------------------|------------3--3------|--------------------3--|

------------------------------|-------------------------------|
------------------------------|-------------------------------|
-----------------5--7-7--0-0--|-------------------------------|
--5--------------5--7-7--0-0--|--5--------------7p5---5-------|
--0--0-0-0-0-0-0--------------|--0--0-0-0-0-0-0-----7----6-7--|
------------------------------|-------------------------------|

|--------------------|--------------------------------|-----------------------|
|--------------------|--------------------------------|-----------------------|
|--------------------|--------------------------------|-----------------------|
|-----9--------------|--------------------------------|--2----2------2---2----|
|-----7--------------|-----------------3----2---------|--0----0------0---0----|
|--0-----------------|--3----2----3--------------3----|------------3----------|

|---------------------|-----------------------|---------------------|
|---------------------|-----------------------|---------------------|
|---------------------|-----------------------|---------------------|
|----2---2----5-------|--2----2------2---2----|----2---2----5-------|
|----0---0----3---5---|--0----0------0---0----|----0---0----3---5---|
|--3--------------3---|------------3----------|--3--------------3---|

|-----------------------|---------------------|-----------------------|
|-----------------------|---------------------|-----------------------|
|-----------------------|---------------------|-----------------------|
|--2----2------2---2----|----2---2----5-------|--2----2------2---2----|
|--0----0------0---0----|----0---0----3---5---|--0----0------0---0----|
|------------3----------|--3--------------3---|------------3----------|

|-----------------|------------------------------|
|-----------------|------------------------------|
|-----------------|-----------------5--7-7--0-0--|
|-----------------|--5--------------5--7-7--0-0--|
|-----------------|--0--0-0-0-0-0-0--------------|
|-----------------|------------------------------|

|-------------------------------|------------------------------|
|-------------------------------|------------------------------|
|-------------------------------|-----------------5--7-7--0-0--|
|--5--------------7p5---5-------|--5--------------5--7-7--0-0--|
|--0--0-0-0-0-0-0-----7----6-7--|--0--0-0-0-0-0-0--------------|
|-------------------------------|------------------------------|

|-------------------------------|----------------------|-----------------------|
|-------------------------------|----------------------|-----------------------|
|--5----------------------------|--7--7----------------|--7--7-----------------|
|--5--------------7p5---5-------|--7--7------5--5------|--7--7-----------------|
|-----0-0-0-0-0-0-----7----6-7--|--5--5------5--5------|--5--5------3---2------|
|-------------------------------|------------3--3------|--------------------3--|

|------------------------------|-------------------------------|
|------------------------------|-------------------------------|
|-----------------5--7-7--0-0--|-------------------------------|
|--5--------------5--7-7--0-0--|--5--------------7p5---5-------|
|--0--0-0-0-0-0-0--------------|--0--0-0-0-0-0-0-----7----6-7--|
|------------------------------|-------------------------------|

|------------------------------|-------------------------------|
|------------------------------|-------------------------------|
|-----------------5--7-7--0-0--|--5----------------------------|
|--5--------------5--7-7--0-0--|--5--------------7p5---5-------|
|--0--0-0-0-0-0-0--------------|-----0-0-0-0-0-0-----7----6-7--|
|------------------------------|-------------------------------|


|----------------------|-----------------------|------------------------------|
|----------------------|-----------------------|------------------------------|
|--7--7----------------|--7--7-----------------|-----------------5--7-7--0-0--|
|--7--7------5--5------|--7--7-----------------|--5--------------5--7-7--0-0--|
|--5--5------5--5------|--5--5------3---2------|--0--0-0-0-0-0-0--------------|
|------------3--3------|--------------------3--|------------------------------|

|-------------------------------|--------------------|
|-------------------------------|--------------------|
|-------------------------------|--------------------|
|--5--------------7p5---5-------|-----9--------------|
|--0--0-0-0-0-0-0-----7----6-7--|-----7--------------|
|-------------------------------|--0-----------------|

|--------------------------------|-----------------------|---------------------|
|--------------------------------|-----------------------|---------------------|
|--------------------------------|-----------------------|---------------------|
|--------------------------------|--2----2------2---2----|----2---2----5-------|
|-----------------3----2---------|--0----0------0---0----|----0---0----3---5---|
|--3----2----3--------------3----|------------3----------|--3--------------3---|

|-----------------------|---------------------|-----------------------|
|-----------------------|---------------------|-----------------------|
|-----------------------|---------------------|-----------------------|
|--2----2------2---2----|----2---2----5-------|--2----2------2---2----|
|--0----0------0---0----|----0---0----3---5---|--0----0------0---0----|
|------------3----------|--3--------------3---|------------3----------|

|---------------------|-----------------------|----------------|
|---------------------|-----------------------|----------------|
|---------------------|-----------------------|----------------|
|----2---2----5-------|--2----2------2---2----|----------------|
|----0---0----3---5---|--0----0------0---0----|----------------|
|--3--------------3---|------------3----------|----------------|

|------------------------------|-------------------------------|
|------------------------------|-------------------------------|
|-----------------5--7-7--0-0--|-------------------------------|
|--5--------------5--7-7--0-0--|--5--------------7p5---5-------|
|--0--0-0-0-0-0-0--------------|--0--0-0-0-0-0-0-----7----6-7--|
|------------------------------|-------------------------------|

|------------------------------|-------------------------------|
|------------------------------|-------------------------------|
|-----------------5--7-7--0-0--|--5----------------------------|
|--5--------------5--7-7--0-0--|--5--------------7p5---5-------|
|--0--0-0-0-0-0-0--------------|-----0-0-0-0-0-0-----7----6-7--|
|------------------------------|-------------------------------|

|----------------------|-----------------------|------------------------------|
|----------------------|-----------------------|------------------------------|
|--7--7----------------|--7--7-----------------|-----------------5--7-7--0-0--|
|--7--7------5--5------|--7--7-----------------|--5--------------5--7-7--0-0--|
|--5--5------5--5------|--5--5------3---2------|--0--0-0-0-0-0-0--------------|
|------------3--3------|--------------------3--|------------------------------|

|-------------------------------|------------------------------|
|-------------------------------|------------------------------|
|-------------------------------|-----------------5--7-7--0-0--|
|--5--------------7p5---5-------|--5--------------5--7-7--0-0--|
|--0--0-0-0-0-0-0-----7----6-7--|--0--0-0-0-0-0-0--------------|
|-------------------------------|------------------------------|

|-------------------------------|----------------------|-----------------------|
|-------------------------------|----------------------|-----------------------|
|--5----------------------------|--7--7----------------|--7--7-----------------|
|--5--------------7p5---5-------|--7--7------5--5------|--7--7-----------------|
|-----0-0-0-0-0-0-----7----6-7--|--5--5------5--5------|--5--5------3---2------|
|-------------------------------|------------3--3------|--------------------3--|


|------------------------------|-------------------------------|
|------------------------------|-------------------------------|
|-----------------5--7-7--0-0--|-------------------------------|
|--5--------------5--7-7--0-0--|--5--------------7p5---5-------|
|--0--0-0-0-0-0-0--------------|--0--0-0-0-0-0-0-----7----6-7--|
|------------------------------|-------------------------------|

|--------------------|--------------------------------|-----------------------|
|--------------------|--------------------------------|-----------------------|
|--------------------|--------------------------------|-----------------------|
|-----9--------------|--------------------------------|--2----2------2---2----|
|-----7--------------|-----------------3----2---------|--0----0------0---0----|
|--0-----------------|--3----2----3--------------3----|------------3----------|

|---------------------|-----------------------|---------------------|
|---------------------|-----------------------|---------------------|
|---------------------|-----------------------|---------------------|
|----2---2----5-------|--2----2------2---2----|----2---2----5-------|
|----0---0----3---5---|--0----0------0---0----|----0---0----3---5---|
|--3--------------3---|------------3----------|--3--------------3---|

|-----------------------|---------------------|-----------------------|
|-----------------------|---------------------|-----------------------|
|-----------------------|---------------------|-----------------------|
|--2----2------2---2----|----2---2----5-------|--2----2------2---2----|
|--0----0------0---0----|----0---0----3---5---|--0----0------0---0----|
|------------3----------|--3--------------3---|------------3----------|

|---------------------|--------------------||------------------------|
|---------------------|--------------------||------------------------|
|---------------------|-----------4--------||*------------------5----|
|----2---2----5-------|--2--------5--------||*--7---7---7---7---5----|
|----0---0----3---5---|--0--------5--------||---0---0---0---0--------|
|--3--------------3---|-----------3--------||------------------------|
3x
|-----------------------|-----------------------|-----------------------||
|-----------------------|-----------------------|-----------------------||
|------------------7----|------------------5----|----------------------*||
|--7---7---7---7---7----|--7---7---7---7---5----|--7---5---------------*||
|--0---0---0---0--------|--0---0---0---0--------|----------7--6--5------||
|-----------------------|-----------------------|-------------------8---||

|-----------------------|-----------------------|-----------------------|
|-----------------------|-----------------------|-----------------------|
|--4---4---4---4---7----|--4---4---4---4---9----|--4---4---4---4---7----|
|--4---4---4---4---7----|--4---4---4---4---9----|--4---4---4---4---7----|
|--2---2---2---2---5----|--2---2---2---2---7----|--2---2---2---2---5----|
|-----------------------|-----------------------|-----------------------|

|-----------------------|-----------------------|-----------------------|
|-----------------------|-----------------------|-----------------------|
|-----------------------|--4---4---4---4---7----|--4---4---4---4---9----|
|--9---7----------------|--4---4---4---4---7----|--4---4---4---4---9----|
|----------9--8--7------|--2---2---2---2---5----|--2---2---2---2---7----|
|-------------------10--|-----------------------|-----------------------|

|-----------------------|-----------------------|-----------------------|
|-----------------------|-----------------------|-----------------------|
|--4---4---4---4---7----|-----------------------|--4---4---4---4---7----|
|--4---4---4---4---7----|--9---7----------------|--4---4---4---4---7----|
|--2---2---2---2---5----|----------9--8--7------|--2---2---2---2---5----|
|-----------------------|-------------------10--|-----------------------|

|-----------------------|-----------------------|-----------------------|
|-----------------------|-----------------------|-----------------------|
|--4---4---4---4---9----|--4---4---4---4---7----|-----------------------|
|--4---4---4---4---9----|--4---4---4---4---7----|--9---7----------------|
|--2---2---2---2---7----|--2---2---2---2---5----|----------9--8--7------|
|-----------------------|-----------------------|-------------------10--|


|-----------------------|-----------------------|-----------------------|
|-----------------------|-----------------------|-----------------------|
|--4---4---4---4---7----|--4---4---4---4---9----|--4---4---4---4---7----|
|--4---4---4---4---7----|--4---4---4---4---9----|--4---4---4---4---7----|
|--2---2---2---2---5----|--2---2---2---2---7----|--2---2---2---2---5----|
|-----------------------|-----------------------|-----------------------|

|-----------------------|-----------------------|-----------------------|
|-----------------------|-----------------------|-----------------------|
|-----------------------|--4---4---4---4---7----|--4---4---4---4---9----|
|--9---7----------------|--4---4---4---4---7----|--4---4---4---4---9----|
|----------9--8--7------|--2---2---2---2---5----|--2---2---2---2---7----|
|-------------------10--|-----------------------|-----------------------|

|-----------------------|-----------------------|-----------------------|
|-----------------------|-----------------------|-----------------------|
|--4---4---4---4---7----|-----------------------|--4---4---4---4---7----|
|--4---4---4---4---7----|--9---7----------------|--4---4---4---4---7----|
|--2---2---2---2---5----|----------9--8--7------|--2---2---2---2---5----|
|-----------------------|-------------------10--|-----------------------|

|-----------------------|-----------------------|-----------------------|
|-----------------------|-----------------------|-----------------------|
|--4---4---4---4---9----|--4---4---4---4---7----|-----------------------|
|--4---4---4---4---9----|--4---4---4---4---7----|--9---7----------------|
|--2---2---2---2---7----|--2---2---2---2---5----|----------9--8--7------|
|-----------------------|-----------------------|-------------------10--|

|-----------------------|-----------------------|-----------------------|
|-----------------------|-----------------------|-----------------------|
|--4---4---4---4---7----|--4---4---4---4---9----|--4---4---4---4---7----|
|--4---4---4---4---7----|--4---4---4---4---9----|--4---4---4---4---7----|
|--2---2---2---2---5----|--2---2---2---2---7----|--2---2---2---2---5----|
|-----------------------|-----------------------|-----------------------|

|-----------------------|-----------------------|-----------------------|
|-----------------------|-----------------------|-----------------------|
|-----------------------|--4---4---4---4---7----|--4---4---4---4---9----|
|--9---7----------------|--4---4---4---4---7----|--4---4---4---4---9----|
|----------9--8--7------|--2---2---2---2---5----|--2---2---2---2---7----|
|-------------------10--|-----------------------|-----------------------|

|-----------------------|-----------------------|-----------------------|
|-----------------------|-----------------------|-----------------------|
|--4---4---4---4---7----|-----------------------|------------------5----|
|--4---4---4---4---7----|--9---7----------------|--7---7---7---7---5----|
|--2---2---2---2---5----|----------9--8--7------|--7---7---7---7---3----|
|-----------------------|-------------------10--|--5---5---5---5--------|

|-----------------------|-----------------------|----------------------|
|-----------------------|-----------------------|----------------------|
|------------------7----|------------------5----|----------------------|
|--7---7---7---7---7----|--7---7---7---7---5----|--7---5---------------|
|--7---7---7---7---5----|--7---7---7---7---3----|----------7--6--5-----|
|--5---5---5---5--------|--5---5---5---5--------|-------------------8--|

|-----------------------|-----------------------|-----------------------|
|-----------------------|-----------------------|-----------------------|
|------------------5----|------------------7----|------------------5----|
|--7---7---7---7---5----|--7---7---7---7---7----|--7---7---7---7---5----|
|--7---7---7---7---3----|--7---7---7---7---5----|--7---7---7---7---3----|
|--5---5---5---5--------|--5---5---5---5--------|--5---5---5---5--------|

|----------------------|----------------------|----------------------|
|----------------------|----------------------|----------------------|
|----------------------|----------------------|----------------------|
|--7---5---------------|--7---5---------------|--7---5---------------|
|----------7--6--5-----|----------7--6--5-----|----------7--6--5-----|
|-------------------8--|-------------------8--|-------------------8--|


|------------------------------------------------------------------|
|------------------------------------------------------------------|
|--2-2-2-2-2-2-2-2-2-2-2-2-2-2-2-2-2-2-2-2-2-2-2-2-2-2-2-2-2-2-2-2-|
|--2-2-2-2-2-2-2-2-2-2-2-2-2-2-2-2-2-2-2-2-2-2-2-2-2-2-2-2-2-2-2-2-|
|--0-0-0-0-0-0-0-0-0-0-0-0-0-0-0-0-0-0-0-0-0-0-0-0-0-0-0-0-0-0-0-0-|
|------------------------------------------------------------------|

|------------------------------------------------------------------|
|------------------------------------------------------------------|
|--2-2-2-2-2-2-2-2-2-2-2-2-2-2-2-2-2-2-2-2-2-2-2-2-2-2-2-2-2-2-2-2-|
|--2-2-2-2-2-2-2-2-2-2-2-2-2-2-2-2-2-2-2-2-2-2-2-2-2-2-2-2-2-2-2-2-|
|--0-0-0-0-0-0-0-0-0-0-0-0-0-0-0-0-0-0-0-0-0-0-0-0-0-0-0-0-0-0-0-0-|
|------------------------------------------------------------------|

|-----------------|----------------|-------------------||
|-----------------|----------------|-------------------||
|--2--------------|----------------|--2----2-----------||
|--2--------------|----------------|--2----2-----------||
|--0--------------|----------------|--0----0-----------||
|-----------------|----------------|-------------------||
Guitar 2:
First little solo:
|-----17----------------------17-------20p17-------|
|--------20p17----17-20p17-------20p17-------20-17-|
|--19b---------19b---------19b---------------------|
|--------------------------------------------------|
|--------------------------------------------------|
|--------------------------------------------------|

|--------------20p17-------------------------------|
|-----17-20p17-------20-17\16-17-20p17-------------|
|--19b---------------------------------19-17----17-|
|--------------------------------------------19----|
|--------------------------------------------------|
|--------------------------------------------------|

|--------------------------------------20b---|
|-----17-20p17----17-20p17----17-20p17-------|
|--19b---------19b---------19b---------------|
|--------------------------------------------|
|--------------------------------------------|
|--------------------------------------------|

|--20p17-17-17-20p17-------------------------|----------------|
|--------------------20-17----17-20p17-------|----------------|
|--------------------------19b---------19b---|----------------|
|--------------------------------------------|----------------|
|--------------------------------------------|----------------|
|--------------------------------------------|----------------|
Second little solo:
|------17-----17-----17------17------17--|
|--20b----20b----20b-----20b-----20b-----|
|----------------------------------------|
|----------------------------------------|
|----------------------------------------|
|----------------------------------------|

|-----17-----17------17------17-----17----17-|
|--------20b-----20b-----20b-----------20b---|
|--19b--------------------------19b----------|
|--------------------------------------------|
|--------------------------------------------|
|--------------------------------------------|

|--20p17----17-20p17-------------------------------|
|--------20----------20-17-17-17-20p17-19----------|
|--------------------------------------19-17----17-|
|--------------------------------------------19----|
|--------------------------------------------------|
|--------------------------------------------------|


|----------------------------------------|----------------|----------------|
|----------------------------------------|----------------|----------------|
|--19b17---------------------------------|----------------|----------------|
|--------19-17----17-19-17---------------|----------------|----------------|
|--------------19----------19--17--15----|----------------|----------------|
|----------------------------------------|----------------|----------------|
Main solo (w/ wah pedal)
|-----7--------7------------------------|--------------------------------------|
|------10p7------10p7---7-10p7---7-10p7-|----7-10p7---7-10p7---7-10p7---7-10p7-|
|--9b-------9b--------9b-------9b-------|--9b-------9b-------9b-------9b-------|
|---------------------------------------|--------------------------------------|
|---------------------------------------|--------------------------------------|
|---------------------------------------|--------------------------------------|

|--10p7-9p7---7-9p7-10p7-9p7---7-10p7-|-----------------7--7--7--|
|-----------9----------------9--------|--10b12----r10------------|
|-------------------------------------|--------------------------|
|-------------------------------------|--------------------------|
|-------------------------------------|--------------------------|
|-------------------------------------|--------------------------|

|--7-10p7----7-10p7-----------------------|-------------------------------|
|---------10--------10-7-7-7-10-7---------|-------------------------------|
|---------------------------------9-7-7-7-|--9p7--------------------------|
|-----------------------------------------|------9-7---7-9-7--------------|
|-----------------------------------------|----------9-------9-7-5--5-----|
|-----------------------------------------|----------------------------7--|

|---------------------------------|------------------------|
|---------------------------------|--------------------19--|
|-----------------------------7---|--9b--9b--9b-9b-21b-----|
|-------------7-7-9p7-7-7-7-9---9-|------------------------|
|------5--7/9---------------------|------------------------|
|--5h7----------------------------|------------------------|

|----------------------------------------------|
|-------19----19----19-22-19----19-22p19-24p19-|
|---21b----21b---21b---------21----------------|
|----------------------------------------------|
|----------------------------------------------|
|----------------------------------------------|

|--------------------------------------------------|
|--22-19----19-22p19-24p19-22-19----19-22p19-24p19-|
|--------21----------------------21----------------|
|--------------------------------------------------|
|--------------------------------------------------|
|--------------------------------------------------|

|--------------------------------------------------|
|--22-19----19-22p19-------------17----------------|
|--------21----------21-18\16-18----18-16-14-14-14-|
|--------------------------------------------------|
|--------------------------------------------------|
|--------------------------------------------------|

|------------------------------|--22r-------22b---21r-19----19-|
|--17---17---17--17~-17--17-14-|-------------------------22----|
|--16b--16b--16b-16b-16b-16-14-|-------------------------------|
|------------------------------|-------------------------------|
|------------------------------|-------------------------------|
|------------------------------|-------------------------------|

|--22p19-------------------------------------------|
|--------22-19----19-22p19-------------------------|
|--------------21b---------21-19----19-21p19-------|
|--------------------------------21----------21-19-|
|--------------------------------------------------|
|--------------------------------------------------|


|--------------------------------------------------|
|--------------------------------------------------|
|--------------------------------------------------|
|-----19-21p19-----------------------------19--21--|
|--21----------21-19-17-17-19-17-16-17/21----------|
|--------------------------------------------------|

|------------------19---14p12-|
|-----------------------------|
|--21b--21b--21b--------------|
|-----------------------------|
|-----------------------------|
|-----------------------------|

|--17p14--17p14p12-17p14p12-17p14p12-17p14p12-17p14p12-17p14p12--------|
|---------------------------------------------------------------17p14--|
|----------------------------------------------------------------------|
|----------------------------------------------------------------------|
|----------------------------------------------------------------------|
|----------------------------------------------------------------------|

|--17p14-14-----17p14p12------17p14p12----0-17p14p12----0-|
|-----------x-0----------17-0----------17------------17---|
|---------------------------------------------------------|
|---------------------------------------------------------|
|---------------------------------------------------------|
|---------------------------------------------------------|

|--17p14p12----0-17p14p12----0-17p14-----14-17p14-------|
|-----------17------------17----------17----------17-14-|
|-------------------------------------------------------|
|-------------------------------------------------------|
|-------------------------------------------------------|
|-------------------------------------------------------|

|----------------------------|-----------------------|
|-----14-17--17b-17b-17r-----|----9b-----------------|
|--16b-----------------------|----9b-----7-------7-9b|
|----------------------------|-------------9---------|
|----------------------------|-----------------------|
|----------------------------|-----------------------|

|-----------------------------------|
|---7-10-7---7-10-7-----------------|
|----------9--------9-7-9-7---7~-9\-|
|---------------------------9-------|
|-----------------------------------|
|-----------------------------------|

|--------14-------17p14-------------------------------|
|--12/14----17p14-------17-14----14-17p14-------------|
|-----------------------------16b---------16-14-14-14-|
|-----------------------------------------------------|
|-----------------------------------------------------|
|-----------------------------------------------------|

|--------------------------|--22r-------22b---21r-19-19-19-|
|--------------------------|-------------------------------|
|--16b--16b--16b---16r-14--|-------------------------------|
|--------------------------|-------------------------------|
|--------------------------|-------------------------------|
|--------------------------|-------------------------------|

|--22p19-------------------------------------------|
|--------22-19----19-22p19-------------------------|
|--------------21b---------21-19-19-19-21p19-------|
|--------------------------------------------21-19-|
|--------------------------------------------------|
|--------------------------------------------------|


|--------------------------------------------------|
|--------------------------------------------------|
|--------------------------------------------------|
|-----19-21p19-------------------------------19-21-|
|--21----------21-19-17-17-19-17-16-17-19/21-------|
|--------------------------------------------------|

|--------------------------------------------|
|--------------------------------------------|
|--19-19-21p19-19-19-21p19-21-19----19/20----|
|--------------------------------21-18/19-21-|
|--------------------------------------------|
|--------------------------------------------|

|--------------------------------------------------|
|--15-15-12----13-16-13-14-17p14----15-18p15----16-|
|-----------13-------------------15----------16----|
|--------------------------------------------------|
|--------------------------------------------------|
|--------------------------------------------------|

|---------------------------------------------13-|
|--19p16----17-20p17----18-21p18----18-21~-15----|
|--------17----------18----------18--------------|
|------------------------------------------------|
|------------------------------------------------|
|------------------------------------------------|

|--17p14----15-19p16----16-20p17----18-21p18----19-|--22b--22b--22r-------|
|--------16----------18----------20----------20----|----------------------|
|--------------------------------------------------|----------------------|
|--------------------------------------------------|----------------------|
|--------------------------------------------------|----------------------|
|--------------------------------------------------|----------------------|

|--------------------------------------------------|
|---17-17-20p17-19p17-x-17-22p17-20p17----17\16-17-|
|--------------------------------------20----------|
|--------------------------------------------------|
|--------------------------------------------------|
|--------------------------------------------------|

|--------------------------------------------------|
|--22p17-20p17-19p17----17-22p17-20p17-19p17-17-17-|
|--------------------20----------------------------|
|--------------------------------------------------|
|--------------------------------------------------|
|--------------------------------------------------|

|--------------------------------------------------|--22b-------22b-----|
|--22p17-20p17-19p17----17-22p17-20p17-19p17-17-17-|--------------------|
|--------------------20----------------------------|--------------------|
|--------------------------------------------------|--------------------|
|--------------------------------------------------|--------------------|
|--------------------------------------------------|--------------------|

|--20p17-17-17-20p17-------------------------------|
|--------------------20-17-17-17-20p17-------------|
|--------------------------------------19-17----19-|
|--------------------------------------------19----|
|--------------------------------------------------|
|--------------------------------------------------|

|---------------------------------------------------|
|---------------------------------------------------|
|--17-17-17h19p17-----------------------------------|
|-----------------19-17----17-19p17-----------------|
|-----------------------19----------19-17-15--------|
|--------------------------------------------17-17b-|


|------------------------------------------------|
|---------------------------------------------17-|
|---------------------------------------17-19----|
|------------------17-17-19p17----17-19----------|
|--------15-17/19--------------19----------------|
|--15-17-----------------------------------------|

|-----------------------20p17----------------------------|
|--20-17\16-20p17-20p17-------20-17-17-17-17-20-17\16-17-|
|--------------------------------------------------------|
|--------------------------------------------------------|
|--------------------------------------------------------|
|--------------------------------------------------------|

|--------------------------------------------------|
|--20p17----------------------------------17-20p17-|
|--------19b17-17-17-19-17----17-19-17-19b---------|
|--------------------------19----------------------|
|--------------------------------------------------|
|--------------------------------------------------|

|--20p17----------------------------------------------|
|--------20-17-17-17-20p17-17-------------------------|
|-----------------------------19-17-17-17-19p17-17-17-|
|-----------------------------------------------------|
|-----------------------------------------------------|
|-----------------------------------------------------|

|--------------------------|--------------------------|------------------|
|--20----20----20----20----|--20----20----------------|--20--------------|
|--19b---19b---19b---19b---|--19b---19b---19b---19b---|--19b-------------|
|--------------------------|--------------------------|------------------|
|--------------------------|--------------------------|------------------|
|--------------------------|--------------------------|------------------|

|----------------|---------------------||
|----------------|--20----20-----------||
|----------------|--19b---19b----------||
|----------------|---------------------||
|----------------|---------------------||
|----------------|---------------------||

2. Jump in the fire.

Line up from now on.

James Hetfield, Dave Mustaine, Lars Ulrich, Ron Mcgovney.

Intro

|------------------------------------------------------
|------------------------------------------------------
|-------------------------------------------------X5x3-
|---------3---------------3---------------3-------x5x3-
|-----3-5---5-4-3-----3-5---5-4-3-----3-5---5-4-3-x3x1-
|-3-6-------------3-6-------------3-6------------------
P.m._             ___             ___
|------------------------------------------------------
|------------------------------------------------------
|-------------------------------------------------X5x3-
|---------3---------------3-------3-------3-------x5x3-
|-----3-5---5-4-3-----3-5---5-4-3---5-4-3---5-4-3-x3x1-
|-3-6-------------3-6----------------------------------
P.m._             ___
|-----------------------------------------------------------
|-----------------------------------------------------------
|-----------------------------------------------------------
|---------3---------------3-------5p3---3--------------3-5--
|-----3-5---5-4-3-----3-5---5-4-3-----5---5-4-3-----3-5-----
|-3-6-------------3-6---------------------------3-6---------
P.m._             ___                         ___
|------------------------------------------------------
|------------------------------------------------------
|-------------------------------------------------X5x3-
|---------3---------------3-------3-------3-------x5x3-
|-----3-5---5-4-3-----3-5---5-4-3---5-4-3---5-4-3-x3x1-
|-3-6-------------3-6----------------------------------
P.m._             ___
|------------------------------------------------------
|------------------------------------------------------
|----------------3--------------------5xxx6------------
|----------------3-3-3-3--------------5xxx6------------
|----------------1-3-3-3--------------3xxx4------------
|----1-3-3-1-3-1---1-1-1--1-3-3-1-3-1------------------

|------------------------------------------------------
|------------------------------------------------------
|-------------------------------------------------X5x3-
|---------3---------------3---------------3-------x5x3-
|-----3-5---5-4-3-----3-5---5-4-3-----3-5---5-4-3-x3x1-
|-3-6-------------3-6-------------3-6------------------
P.m._             ___             ___
|------------------------------------------------------
|------------------------------------------------------
|-------------------------------------------------X5x3-
|---------3---------------3-------3-------3-------x5x3-
|-----3-5---5-4-3-----3-5---5-4-3---5-4-3---5-4-3-x3x1-
|-3-6-------------3-6----------------------------------
P.m._             ___
|-----------------------------------------------------------
|-----------------------------------------------------------
|-----------------------------------------------------------
|---------3---------------3-------5p3---3--------------3-5--
|-----3-5---5-4-3-----3-5---5-4-3-----5---5-4-3-----3-5-----
|-3-6-------------3-6---------------------------3-6---------
P.m._             ___                         ___

|------------------------------------------------------
|------------------------------------------------------
|-------------------------------------------------X5x3-
|---------3---------------3-------3-------3-------x5x3-
|-----3-5---5-4-3-----3-5---5-4-3---5-4-3---5-4-3-x3x1-
|-3-6-------------3-6----------------------------------

|----------------------------------------------------
|----------------------------------------------------
|----------------------------------------------------
|-8-8-8-8-8--8-8-8-8-8-6-8--5-5-5-5-5--5-5-5-5-5-3-5-
|-8-8-8-8-8--8-8-8-8-8-6-8--5-5-5-5-5--5-5-5-5-5-3-5-
|-6-6-6-6-6--6-6-6-6-6-4-6--3-3-3-3-3--3-3-3-3-3-1-3-

|-----------------------------------------------------------------
|-----------------------------------------------------------------
|-----------------------------------------------------------------
|-----------------------------------------------------------------
|-1-1-1-1-1-1-1-1-1-1-1-1-1-1-1-1---------------------------------
|---------------------------------3-3-3-3-3-3-3-3-3-3-3-3-3-3-3-3-

|-----------------------------------------------------------------
|-----------------------------------------------------------------
|-----------------------------------------------------------------
|-----------------------------------------------------------------
|-1-1-1-1-1-1-1-1-1-1-1-1-1-1-1-1---------------------------------
|---------------------------------3-3-3-3-3-3-3-3-3-3-3-3-3-3-3-3-

|---------------------------------------------------3-------3-----0-|
|-6/3p0-------6/3p0-------6/3p0-------6/3p0-------3-3-6-3-----3---0-|
|-------5/3p0-------5/3p0-------5/3p0-------5/3p0---------3-----0-0-|
|-------------------------------------------------------------------|
|-------------------------------------------------------------------|
|-------------------------------------------------------------------|

|---------------------------------------------------3-5-3-5-5-----|
|-3-3-3-3-3-3-3-3-3-3-3-0b-5-5-5-5-5-5-5-5-5-5-5-3b-3-5-3-5-5-----|
|-----------------------------------------------------------------|
|-----------------------------------------------------------------|
|-----------------------------------------------------------------|
|-----------------------------------------------------------------|

|------------------------------------------4^---------------------|
|-3-3-3-3-3-3-3-3-3-3-3-3-3-3-3-3-3-4-3-2-------------------------|
|-----------------------------------------------------------------|
|-----------------------------------------------------------------|
|-----------------------------------------------------------------|
|-----------------------------------------------------------------|

|------------------------------------------------------
|------------------------------------------------------
|----------------3--------------------5xxx6------------
|----------------3-3-3-3--------------5xxx6------------
|----------------1-3-3-3--------------3xxx4------------
|----1-3-3-1-3-1---1-1-1--1-3-3-1-3-1------------------


|------------------------------------------------------
|------------------------------------------------------
|-------------------------------------------------X5x3-
|---------3---------------3---------------3-------x5x3-
|-----3-5---5-4-3-----3-5---5-4-3-----3-5---5-4-3-x3x1-
|-3-6-------------3-6-------------3-6------------------
P.m._             ___             ___
|------------------------------------------------------
|------------------------------------------------------
|-------------------------------------------------X5x3-
|---------3---------------3-------3-------3-------x5x3-
|-----3-5---5-4-3-----3-5---5-4-3---5-4-3---5-4-3-x3x1-
|-3-6-------------3-6----------------------------------
P.m._             ___
|-----------------------------------------------------------
|-----------------------------------------------------------
|-----------------------------------------------------------
|---------3---------------3-------5p3---3--------------3-5--
|-----3-5---5-4-3-----3-5---5-4-3-----5---5-4-3-----3-5-----
|-3-6-------------3-6---------------------------3-6---------
P.m._             ___                         ___
|------------------------------------------------------
|------------------------------------------------------
|-------------------------------------------------X5x3-
|---------3---------------3-------3-------3-------x5x3-
|-----3-5---5-4-3-----3-5---5-4-3---5-4-3---5-4-3-x3x1-
|-3-6-------------3-6----------------------------------

|-1-1-1-2-2-2-3-3-3-4-4-4--12-12-12-12-13^-12-14^-12-15^-
|--------------------------------------------------------
|--------------------------------------------------------
|--------------------------------------------------------
|--------------------------------------------------------
|--------------------------------------------------------

|-12-12-12-15-14-13-12-13^-12-14-15-13^-12-12-12-13-13-13-
|---------------------------------------------------------
|---------------------------------------------------------
|---------------------------------------------------------
|---------------------------------------------------------
|---------------------------------------------------------

|-13-13-13-14-14-14-15-15-13^-12-12^- -12-12-12-15-12-12-12-14-15-15-
|------------------------------------ -------------------------------
|------------------------------------ -------------------------------
|------------------------------------ -------------------------------
|------------------------------------ -------------------------------
|------------------------------------ -------------------------------

|-12-12-12-15-12-12-12-14-12-12-15-12-15-12-14-12-14---
|------------------------------------------------------
|------------------------------------------------------
|------------------------------------------------------
|------------------------------------------------------
|------------------------------------------------------


|-12-12-12-12-12-17^-17^-17^-17^-17^+++++++---------------------------
|---------------------------------------------------------------------
|-------------------------------------------7+++++++++--7+-2+---------
|-------------------------------------------5+++++++++--5+-0+---------
|---------------------------------------------------------------------
|---------------------------------------------------------------------

3 Killing time

Intro
Q=231
4/4
Gtr I
TP          TP          TP         TP
Wx5           W           W           W          W
|------------|-----------|-----------|-----------|-------||
|------------|-----------|-----------|-----------|-------||
|------------|-----------|-----------|-----------|-------||
|------------|-----------|-----------|-----------|-------||
|------------|-12--------|-12S=======|=10S=======|=7\----||
|------------|-----------|-----------|-----------|-------||


Gtr III
W                   W                  W
||----------------------|-----------------|--------|
||o-(<7>)---------------|-----------------|--------|
||----------------------|-----------------|--------|
||----------------------|-----------------|--------|
||o---------------------|-----------------|--------|
||----------------------|-----------------|--------|
|-play 2nd time only
|
|   Gtr I
|     PM------------------------------|
|     E   E E E E E E E   E E E E E E E E   +W
||----------------------|-----------------|--------|
||o---------------------|-----------------|--------|
||----------------------|---------------5-|-(5)----|
||----------------------|---------------5-|-(5)----|
||o---0---0-0-0-0-0-0-0-|-0-0-0-0-0-0-0-3-|-(3)----|
||----------------------|-----------------|--------|


|---3---|
Q   Q   Q   H            +W                   W
|------------------------|---------------------|-----------------|
|---------<7>------------|---------------------|-----------------|
|-----<7>-----<5>--------|-(<5>)---------------|-----------------|
|-<7>--------------------|---------------------|-----------------|
|------------------------|---------------------|-----------------|
|------------------------|---------------------|-----------------|
|-play 2nd time only
|
|                            PM------------------------------|
| +H.              +Q        E   E E E E E E E   E E E E E E E E
|------------------------|---------------------|-----------------|
|------------------------|---------------------|-----------------|
|-(5)--------------(5)\--|---------------------|---------------7-|
|-(5)--------------(5)\--|---------------------|---------------7-|
|-(3)--------------(3)\--|---0---0-0-0-0-0-0-0-|-0-0-0-0-0-0-0-5-|
|------------------------|---------------------|-----------------|


1.                           2.
|---3---|   |--3---|
W            Q   Q   Q   Q      H       a a  Q      +Q    Q   +Q
|------------|-------------<7>----------||-----20b24r=(20)--------------||
|------------|---------<7>--------<7>--o||---x--------------------------||
|------------|-----<7>------------------||-x----------------17--(17)\---||
|------------|-<7>----------------------||------------------------------||
|------------|-------------------------o||------------------------------||
|------------|--------------------------||------------------------------||
|
| +W           +H          +E  Q.               H.                Q
|------------|--------------------------||------------------------------||
|------------|-------------------------o||------------------------------||
|-(7)--------|-(7)---------(7)----------||-----(7)----------------------||
|-(7)--------|-(7)---------(7)-7\-------||-----(7)----------------7\----||
|-(5)--------|-(5)---------(5)-7\------o||-----(5)----------------7\----||
|------------|--------------------------||------------------------------||


1.,2.,3.             4.
~~~~~~~
W                 W                     Q.      E      +E   +E   Q
||------------------|------------------||--17------17-----(17)-(17)-17-------||
||o-----------------|-----------------o||--20b22---20b22==(20)r(20)-20pb22===||
||------------------|------------------||------------------------------------||
||------------------|------------------||------------------------------------||
||o-----------------|-----------------o||------------------------------------||
||------------------|------------------||------------------------------------||
|
|   PM|   PM|   PM|       PM
|   E E E E E E E E   E E E E +Q   Q        Q.      E      +Q        Q
||------------------|------------------||------------------------------------||
||o-----------------|-----------------o||--10------10-----(10)------10\------||
||------7-----5-----|-------7-(7)--9---||---9-------9------(9)-------9\------||
||------------------|-7p5---5-(5)--7---||---7-------7------(7)-------7\------||
||o-0-0---0-0---0-0-|-----0-----------o||------------------------------------||
||------------------|------------------||------------------------------------||


+Q      Q   H        W
||--(17)\---------------|-----------------|
||o-(20)r\--------------|-----------------|
||----------------------|-----------------|
||----------------------|-----------------|
||o---------------------|-----------------|
||----------------------|-----------------|
|
|   Gtrs I, II
|     PM---|                  PM
|     E    E E E E Q  E   E E E E +Q   Q
||----------------------|-----------------|
||o---------------------|-----------------|
||-----------7p5---5----|-7p5---7-(7)--9--|
||-----------7p5---5----|-7p5---5-(5)--7--|
||o---0----0-----0----0-|-----0-----------|
||----------------------|-----------------|
|-Rhy Fig 1

1.
PM|                  PM
E E E E E Q  E   E E E E +Q   Q
|----------------|-------------------||
|----------------|------------------o||
|-----7p5---5----|-7p5---5-(5)--5----||
|-----7p5---5----|-7p5---5-(5)--5----||
|-0-0-----0----0-|-----0-3-(3)--3---o||
|----------------|-------------------||
end Rhy Fig 1-|

2.
Gtrs I, II
PM
E E E E +Q   Q     H.      Q     Q.    E  +Q    Q
|-----------------|-------------|--------------------||
|-----------------|-------------|--------------------||
|-7p5---5-(5)--5S=|=10----------|-12----12-(12)--12--||
|-7p5---5-(5)--5S=|=10----------|-12----12-(12)--12--||
|-----0-3-(3)--3S=|==8----------|-10----10-(10)--10--||
|-----------------|-------------|--------------------||


Verse 1, 3

||--
||o-
||-- Rhy Fig 1
||--
||o-
||--
|-Rhy Fig 2

PM|                  PM            PM|                  PM
E E E E E Q  E   E E E E +Q   Q    E E E E E Q  E   E E E E +Q   Q
|----------------|-----------------|----------------|-----------------|
|----------------|-----------------|----------------|-----------------|
|-----7p5---5----|-7p5---7-(7)--9--|-----7p5---5----|-7p5---5-(5)--4--|
|-----7p5---5----|-7p5---5-(5)--7--|-----7p5---5----|-7p5---5-(5)--4--|
|-0-0-----0----0-|-----0-----------|-0-0-----0----0-|-----0-3-(3)--2--|
|----------------|-----------------|----------------|-----------------|
|-Rhy Fill 1    --|

Bb5                          C5
Gtrs I, II
W                            W
|                            |
/                            /

Gtr III
|-3--| |-3-|   |-3-| |-3-| |-3-| |-3-|
S E. S S S S +E  E E E E E   E E E E E E E E E E E E
|----------------------------|-------------------------|
|-5p1------------------------|-6p3p0-------------------|
|------3p1p0-----------------|-------5p3p0-------------|
|------------3-(3)p1p0-------|-------------5p3p0-------|
|----------------------3p1p0-|-------------------5p3p0-|
|----------------------------|-------------------------|
|-play 2nd time only

D     D5  D   D5        D   D5  D     D5
E   E Q   E E Q         E E Q    E  E  Q
|   | |   | | |         | | |    |  |  |
o   / /   o / /         o / /    o  /  /

~~~
Q     E E E Q     E     E E E E +Q    +Q
|-----------------------|---------------------|
|-------6-----5---------|---------------------|
|-------7p5---5-----5h==|=7p5-----------------|
|-----------7-----------|-----7-5-(5)---(5)\--|
|-----------------------|---------------------|
|-----------------------|---------------------|
|-play 1st time only
|
|                               ~~~~~~
| S S E E E E E S S S S   E E E E +H
|-----------------------|---------------------|
|-----------5-6-5h6p5---|-5-6-8-8-(8)---------|
|-------5-7-----------7-|---------------------|
|-5h6h7-----------------|---------------------|
|-----------------------|---------------------|
|-----------------------|---------------------|
|-play 2nd time only

Bb5                   C5           end Rhy Fig 2-|
H.             Q     Q.       E     +Q    Q
|                    |        |      |    |
/                    /        /      /    /

E  S S E E E E E E   E  Q     E     +Q    Q
|-^5----7---8---7-5---|-5--------5-----(5)---5-----||
|-^5----------------8-|----8b10--8b10==(8)r--8b10--||
|---------------------|----------------------------||
|---------------------|----------------------------||
|---------------------|----------------------------||
|---------------------|----------------------------||
|-play 2nd time only

Verse 2, 4, 6
$
w/Rhy Fig 1
Q       a      +Q     H        W
|-5------(5)-----(5)-----------|-----------------|
|-8b10r==(8)b10==(8)r----------|-----------------|
|------------------------------|-----------------|
|------------------------------|-----------------|
|------------------------------|-----------------|
|------------------------------|-----------------|


Rhy Fig 1
Rhy Fill 1


Bb5                                 C5
Gtrs I, II
W                                   W
|                                   |
/                                   /

Gtr III
~~~~~~~~~~~
E      E  E  E  E  E   E      E     Q.      E      +Q    +Q
|-17-----17-17-17-17-17--17-----17--|-20b23---20b23==(20)--(20)r\--||
|-20b22==20-20-20-20-20r-20b22==20r-|------------------------------||
|-----------------------------------|------------------------------||
|-----------------------------------|------------------------------||
|-----------------------------------|------------------------------||
|-----------------------------------|------------------------------||


Chorus
D5           Bb5VIF5   E5     D5
Q  H.        Q.   E +E Q.     Q  H.
|  |         |    |  | |      |  |
/  /         /    /  / /      /  /
|------------|----------------|----------|


To Coda
Bb5VIF5   G5     D5           Bb5VIF5   E5     D5
Q.   E +E Q.     Q  H.        Q.   E +E Q.     Q  H.
|    |  | |      |  |         |    |  | |      |  |
/    /  / /      /  /         /    /  / /      /  /
|----------------|------------|----------------|------------|


1.
Bb5VIG5III
Q.   E +Q   Q          W
|    |  |
/    /  /

|--3--|    |--3--|  |--3--|  |--3--|  |--3--|
H       Q   E  E  E    E  E  E  E  E  E  E  E  E  E  E  E
|---------------------|-------------------------------------|
|------------10s17-17-|-20p17-17-20p17----20p17----20p17----|
|---------------------|----------------18-------18-------18-|
|---------------------|-------------------------------------|
|---------------------|-------------------------------------|
|---------------------|-------------------------------------|


W
~~~~~
|--3--|  |3-|
E  E  E  E  Q  H
|----------------20b23-----||
|-20p17----20p17----------o||
|-------18-----------------||
|--------------------------||
|-------------------------o||
|--------------------------||


2.
Bb5VIG5III
Q.   E +Q  Q    W          W
|    |  |
/    /  /
|---------------|----------|------||


Interlude
A5
Gtrs I, II
Q    Q   H           W                   Q   Q      H
|                                        |
/                                        /

Gtr III
PM|    PM|    PM|      PM|    PM|
E E  E E E  E E E    E E E  E E E  Q     Q  +H         +Q
|-------------------|--------------------|---------------------|
|-------------------|--------------------|-7--(7)b8======(7)r--|
|-----14-----17-----|-16-----15-----14\--|-7--(7)b9======(7)r--|
|-----14-----17-x-x-|-16-x---15-----14\--|---------------------|
|-0-0-12-0-0-15-x-x-|-14-x-0-13-0-0-12\--|---------------------|
|-------------------|--------------------|---------------------|


W                   Q   Q  H         W
|
/

~~~~~~~~~~~                        ~~
E E E E S S Q.     +Q   Q  E E E E   E E E E E Q.
|------------------|-----------------|-----------------|
|-7p5--------------|-----------------|-----------------|
|-7p5---5-9p5------|-----------------|---------5-------|
|-----7-------7----|-(7)-------------|---5-6-7---7-----|
|------------------|------0--3-4-5-6-|-7---------------|
|------------------|-----------------|-----------------|


Q     Q     H
|
/

|-3-|  |-3--|
E S S E S S E E E  E E  E
|---------------------------|
|---------------------------|
|-5-7p5---7h9p7---9-11p9h11-|
|-------7-------9-----------|
|---------------------------|
|---------------------------|


Guitar Solo
A5XII                               E5(type 2)
Q.          E +Q        Q           Q     Q  E E  Q
|           |  |        |           |     |  | |  |
/           /  /        /           /     /  / /  /

|--3--|        |--3--|  |--3--|
E  E  E  E  E  E  E  E  E  E  E     H.            E  E
|----------------------------------||---------------17-19-|
|-------------------------------19-||-20b22---------------|
|-10h12p10----14-12----16-14s16----||---------------------|
|----------12-------12-------------||---------------------|
|----------------------------------||---------------------|
|----------------------------------||---------------------|


Q     E  E +Q            Q                Q      Q      E      E  Q
|     |  |  |            |                |      |      |      |  |
/     /  /  /            /                /      /      /      /  /

E  E  E  E  S  S  S  S  +S   E  S        +E   E  E  E   E      E  E  E
|-20-19-17-19-17h19p17---------17--------|------17-17-17--17-----17-17-17--|
|----------------------20-(20)----20b22==|=(20)-20-20-20r-20b22==20-20-20r-|
|----------------------------------------|---------------------------------|
|----------------------------------------|---------------------------------|
|----------------------------------------|---------------------------------|
|----------------------------------------|---------------------------------|


D5
Q         E  E  +Q         Q
|         |  |   |         |
/         /  /   /         /

E      E  E  E   E      E  E  E
|-17-----17-17-17---------17-17-17--|
|-20b22==20-20-20r-20b22==20-20-20r-|
|-----------------------------------|
|-----------------------------------|
|-----------------------------------|
|-----------------------------------|


E5(type 2)                                       G5III
Q         Q      E      E  Q        Q         E  E  +Q        Q
|         |      |      |  |        |         |  |   |        |
/         /      /      /  /        /         /  /   /        /

E      E  E  E   E      E  E  E     E      E  E  E   E      Q    E
|-17-----17-17-17---------17-17-17--|-17-----17-17-17--17-----17---17--|
|-20b22==20-20-20r-20b22==20-20-20r-|-20b22==20-20-20r-20b22==20---20r-|
|-----------------------------------|----------------------------------|
|-----------------------------------|----------------------------------|
|-----------------------------------|----------------------------------|
|-----------------------------------|----------------------------------|


E5(type 2)
Q     Q          E    E        Q
|     |          |    |        |
/     /          /    /        /

Q.       E      +E   +E       +E   +E
|-20b23----20b23==(20)r(20)b23==(20)r(20)b24==|
|---------------------------------------------|
|---------------------------------------------|
|---------------------------------------------|
|---------------------------------------------|
|---------------------------------------------|


G5III             F5I
Q   E E  +Q     Q        Q     H     Q
|   | |   |     |        |     |     |
/   / /   /     /        /     /     /

~~~~~
+H        +Q    +E   E    H.          E  E
|-(20)------(20)r=(20)-17-|-------------17-19-|
|-------------------------|-20b22-------------|
|-------------------------|-------------------|
|-------------------------|-------------------|
|-------------------------|-------------------|
|-------------------------|-------------------|


G5III                               A5V
Q     H              Q               E    E  Q          E      E  Q
|     |              |               |    |  |          |      |  |
/     /              /               /    /  /          /      /  /

|--3--|
E  E  E  S  S  E  E  E  E  E        +E    E  E      E   E      E  E  E
|-20-19-17-19p17----17----17--------|-------17-17-----17--17-----17--x-17-|
|----------------20----20----20b22==|=(20)r----20b22==20r-20b22==20r-x----|
|-----------------------------------|-------------------------------------|
|-----------------------------------|-------------------------------------|
|-----------------------------------|-------------------------------------|
|-----------------------------------|-------------------------------------|


E      E   Q       E  E  Q
|      |   |       |  |  |
/      /   /       /  /  /

|--3--|       |--3--|
E      E   E  E  E E  E  E  E  E
|-17-----17--20p17---------12-------|
|-20b22==20r-------20---15----15p13-|
|-----------------------------------|
|-----------------------------------|
|-----------------------------------|
|-----------------------------------|


F5I                      G5III
H.               Q       Q.      E  +Q     Q
|                        |       |   |     |
/                  
Добавлено: 26.04.2012
Другие материалы по этой песне:
  • Аккорды и текст

Страница создана 26.04.2012
http://primanota.ru/metallica/ron-mcgovneys-82-garage-demo-album-chords.htm
Привет, Гость.
Предлагаем пройти революционный курс по гитаре.
Подарок от PrimaNota.Ru, забирай!