PrimaNota.ru - самый крупный в мире бесплатный архив песенных текстов, аккордов, табулатур и нот


Metallica - S And M (album) - таба, бас-таба, видео

Регистрация Запомнить меня
Войти через:  Facebook Google Twitter Vk Yandex Mail.ru

Metallica - S And M (album) - таба, бас-таба, видео

Печатать
Просмотров: 218
Уроки эстрадного вокала в Санкт-Петербурге
Band- Metallica
Album- S&M

This album is so good cause it has every Metallica classic, all jam packed into 2
discs.The album is
2 CD's, but I wrote them all as 1.Here they are:

1.The Ecstacy Of Gold
2.The Call Of Ktulu
3.Master Of Puppets
4.Of Wolf & Man
5.The Thing That Should Not Be
6.Fuel
7.The Memory Remains
8.No Leaf Clover
9.Hero Of The Day
10.Devil's Dance
11.Bleeding Me
12.Nothing Else Matters
13.Until It Sleeps
14.For Whom The Bell Tolls
15.Human
16.Wherever I May Roam
17.The Outlaw Torn
18.Sad But True
19.One
20.Enter Sandman
21.Battery

1.THE ECSTACY OF GOLD

standard tuning


rythm guitar:
1a) Amin                       Cmaj                       Dmin  Fmaj
e------------------------- t ------------------------ t -1------1-|
B--0-1---0-1---0-1---0-1-- w -3-5---3-5---3-5---3-5-- w -3------1-|
G------2-----2-----2-----2 i -----5-----5-----5-----5 i -2------2-|
D------------------------- c ------------------------ c -0------3-|
A------------------------- e ------------------------ e ----------|
E------------------------- - ------------------------   ----------|
adaption of the piano part (0:34)
clean


melody guitar
1b) Harm
e------------------------------------------------|
B---------5~~~-8-5~~~---5--------5----5----------|
G---------------------7---7-5--7---7----7--------|
D-------7---------------------------------7-7~~~-|
A--12--------------------------------------------|
E------------------------------------------------|
adaption of the muted horn melody riff at the beginning (0:34)


melody guitar
1c)
e-----12~~~-15-12~~~----12-----------12-----12----------|
B--------------------15----15-13--15----15-----15-------|
G--14---------------------------------------------14-14-|
D-------------------------------------------------------|
A-------------------------------------------------------|
E-------------------------------------------------------|
adaption of the violin part (1:21)

rythm guitar
2a) Amin                       Gmaj                       Cmaj   Bdim7
e------------------------- t ------------------------ t -0----------|
B--0-1---0-1---0-1---0-1-- w -0-----0-----0-----0---- w -1------2-2-|
G------2-----2-----2-----2 i ---0-----0-----0-----0-- i -0------4-3-|
D------------------------- c -----0-----0-----0-----0 c -2------4-4-|
A------------------------- e ------------------------ e -3------2-2-|
E-------------------------   ------------------------   ------------|
adaption of the piano part (0:58)
clean

melody guitar
2b) Harm
e--------------7---------------------------------|
B---------5~~~---8~~~-5-8-5----5-8-5--8-----5~~~-|
G---------------------------7-----------5-7------|
D-------7----------------------------------------|
A--12--------------------------------------------|
E------------------------------------------------|
adaption of the muted horn melody riff (0:58)


melody guitar
2c)
e-----12~~~-19-15~~~-12-15-12-----12-15-12--15-------12-|
B-----------------------------15---------------13-15----|
G--14---------------------------------------------------|
D-------------------------------------------------------|
A-------------------------------------------------------|
E-------------------------------------------------------|
adaption of the violin part (1:34)

rythm guitar
3a)
e-------------------------------------------------------|
B--1------5---------------------------------------------|
G--2------5------7------------10----------------7-----7-|
D--2------5------7------------10------------6-9---10----|
A--0------3------5------------8----12-10--7-------------|
E-------------------------------------------------------|
riff 3a is the lower string section (1:45)
still clean

melody guitar
3b)
e------------------------------------5------4-7-10-8--10-|
B----5~~~-8-5~~~---5--------5------5---8--5--------------|
G----------------7---7-5--7------5-----------------------|
D--7---------------------------7-------------------------|
A--------------------------------------------------------|
E--------------------------------------------------------|
riff 3b is the higher melody (1:45)

rythm guitar
4a)
G--2--2-------2-----2--5--5-------5-----5--7--7-------7-----7--10-|
D--2--2-------2-----2--5--5-------5-----5--7--7-------7-----7--10-|
A--0--0-0-0-0-0-0-0-0--3--3-3-3-3-3-3-3-3--5--5-5-5-5-5-5-5-5--8--|
E-----------------------------------------------------------------|
riff 4a is when the full orchestra comes in (2:02)
crunch


melody guitar 1
4b)
e-----12-------15-12---------17------20-17-------|
B-------------------------15---------------------| repeat
G--14--------------------------------------------|
D------------------------------------------------|
A------------------------------------------------|
E------------------------------------------------|
riff 4b) is the strings (higher melody) in the "echo" part of the melody
(2:02)

melody guitar 2
4c)
e---------------------------------5--------8-5----|
B-----------5---------8-5-------------------------|
G-------------------------7-----7-----------------| repeat
D---------7---------------------------------------|
A-----------------------------------------------0-|
E-------------------------------------------------|
riff 4c) is the brass (lower melody) in the "echo" part of the melody
(2:02)

2.THE CALL OF KTULU

Intro
    Q=140
   4/4
    Gtr I
    E E E E E E E E   E E E E E E E E   E E E E E E E E   E E E E E E E E
||----5---------5---|---5---------5---|---6---------6---|---6---------6----|
||o-------6---5---6-|-------6---5---6-|-------6-------6-|-------6-------6--|
||------7-----------|-----7-----------|-----7-----9-----|-----7-----9------|
||--0-------7-------|-0-------7-------|-0-------8-------|-0-------8--------|
||o-----------------|-----------------|-----------------|------------------|
||------------------|-----------------|-----------------|------------------|
    H       H         H       H         H       H         H       H
 |-Rhy Fig 1

                                                         1.
  E E E E  E E E E   E E E E  E E E E   E E E E E E E E   E E E E E E E E
|---8----------8---|---8----------8---|---5---------5---|---5---------5----||
|-------8--------8-|-------8--------8-|-------6---5---6-|-------6---5---6-o||
|-----9------9-----|-----9------9-----|-----7-----------|-----7------------||end
|-0-------10-------|-0-------10-------|-0-------7-------|-0-------7--------||Rhy Fig 1
|------------------|------------------|-----------------|-----------------o||
|------------------|------------------|-----------------|------------------||
  H        H         H        H         H       H         H       H


  2.
  W            E   E E E E E Q     E E E E E E E E  4x
|----------||------------0-------|---------0--------||
|-6--------||o---------0---0-----|-------0---0-----o||
|----------||--------5-------5---|-----5-------5----||
|-0--------||------7-------------|---7-----------7--||
|----------||o-0---------------7-|-6---------------o||
|----------||--------------------|------------------||
               H..             E   W
            |-Rhy Fig 2               end Rhy Fig 2-|


    E E E E E E E E   E E E E E E E E  4x
||--------1-------1-|-------1-------5--||
||o-----3-------3---|-----3-------3---o||
||----2-------3-----|---4-------5------||
||--0-------0-------|-0-------0--------||
||o-----------------|-----------------o||
||------------------|------------------||
    H       H         H       H
 |-Rhy Fig 3             end Rhy Fig 3-|


w/Rhy Fig 2 x4
 Gtr II
    <                   <
    w                   w                4x
||--------------------|------------------||
||o-1-----------------|-1---------------o||
||--2-----------------|-2----------------||
||--2-----------------|-1----------------||
||o-------------------|-----------------o||
||--------------------|------------------||


w/rhy fig 3 x4
    <       <         <                   <       <         <
    h       h         w                3x h       h         w
||------------------|------------------||-----------------|-------------------|
||o-----------------|-----------------o||-----------------|-------------------|
||------------------|------------------||-----------------|-------------------|
||------------------|------------------||-----------------|-------------------|
||o-5-------7-------|-8---------------o||-5-------7-------|-8-----------------|
||------------------|------------------||-----------------|-------------------|
|
|   gtr iii
|                                         pm--------------------------|
|   w                 w                3x e e e e e e e e   e e e e e e q
||------------------|------------------||-----------------|----------------------|
||o-----------------|-----------------o||-----------------|----------------------|
||------------------|------------------||-----------------|----------------------|
||------------------|------------------||-----------------|----------------------|
||o-----------------|-----------------o||-7-7-7-7-7-7-7-7-|-7-7-7-7-7-7-7\\------|
||------------------|------------------||-----------------|----------------------|


    gtr ii
    pm------------------------------------
    e e e e e e e e   e e e e e e e  e  4x
||----------0-------|---------0---------||
||o-------0---0-----|-------0---0------o||
||------5-------5---|-----5-------5-----||
||----7-------------|---7------------7--||
||o-0-------------7-|-6----------------o||
||------------------|-------------------||
|-rhy fig 5               end rhy fig 5-|
|
|   gtr iii
|   pm--------------------------|
|   e e e e e e e e   e e e e e e e  e  4x
||------------------|-------------------||
||o-----------------|------------------o||
||------------------|-------------------||
||----------------9-|-8-8-8-8-8-8-9s11--||
||o-7-7-7-7-7-7-7-7-|-6-6-6-6-6-6-7s=9-o||
||--5-5-5-5-5-5-5---|-------------------||
 |-rhy fig 4              end rhy fig 4-|


 -----------------------------------|
    e e e e e e e e   e e e e e e e e  3x
||--------1-------1-|-------1-------5--||
||o-----3-------3---|-----3-------3---o||
||----2-------3-----|---4-------5------||
||--0-------0-------|-0-------0--------||
||o-----------------|-----------------o||
||------------------|------------------||
|-rhy fig 7              end rhy fig 7-|
|
|   pm------------------------------|
|   e e e e e e e e   e e e e e e e e  3x
||------------------|------------------||
||o-----------------|-----------------o||
||--2-2-2-2-3-3-3-3-|-4-4-4-4-5-5-5-5--||
||--0-0-0-0-0-0-0-0-|-0-0-0-0-0-0-0-0--||
||o-----------------|-----------------o||
||------------------|------------------||
 |-rhy fig 6             end rhy fig 6-|


w/rhy fig 5 & 6
  gtr iv
  s s s s s s s s s s s s s s s s   s s s s s s s s s s s s s s s s
|---------------------------------|---------------------------------|
|---------------------------------|---------------------------------|
|---------------------------------|---------------------------------|
|-3p0h2p0h3p0h2p0h3p0h2p0h3p0h2p0-|-3p0h2p0h3p0h2p0h3p0h2p0h3p0h2p0-|
|---------------------------------|---------------------------------|
|---------------------------------|---------------------------------|

rhy fig 4 & 5 x4

rhy fig 6 & 7 x3


w/rhy fig 6 & 7
  gtr iv
  s s s s s s s s s s s s s s s s   s s s s s s s s s s s s s s s s
|---------------------------------|---------------------------------|
|---------------------------------|---------------------------------|
|---------------------------------|---------------------------------|
|-3p0h2p0h3p0h2p0h3p0h2p0h3p0h2p0-|-3p0h2p0h3p0h2p0h3p0h2p0h3p0h2p0-|
|---------------------------------|---------------------------------|
|---------------------------------|---------------------------------|


                        pm--|
    e e e e e e e e   e e e e e e e  e  4x
||------------------|-------------------||
||o-----------------|------------------o||
||------------------|-------------------||
||----------------9-|-8-------8-9-9s11--||
||o-7-7-7-7-7-7-7-7-|-6-6-6-6-6-7-7s=9-o||
||--5-5-5-5-5-5-5---|-------------------||
 |-rhy fig 8              end rhy fig 8-|


rhy fig 6 x3

w/rhy fig 6
  gtr iv
  s s s s s s s s  s s  s s  s s  s s
|-------------------------------------|
|-------------------------------------|
|-------------------------------------|
|-------------------------------------|
|-8p5h7p5h8p5h7p5s12p9h10p9h12p9h10p9s|
|-------------------------------------|


   s  s  s  s  s  s  s  s  s  s  s  s q
|---------------------------------------------|
|---------------------------------------------|
|---------------------------------------------|
|---------------------------------------------|
|-13p10h12p10h13p10h12p10s15p12h14p12-x\\-----|
|---------------------------------------------|


rhy fig 8 x4

rhy fig 6 x3

w/rhy fig 6
  gtr iii
  s s s s s s s s s s s s s s s s   e  e  e  e  e  e  e  e
|---------------------------------|-------------------------|
|---------------------------------|-------------------------|
|-2p0h2p0h2p0h2p0h3p0h3p0h3p0h3p0-|-------------------------|
|---------------------------------|-------------------------|
|---------------------------------|-x/-x/-x/-x/-x/-x/-x/-x/-|
|---------------------------------|-------------------------|


      pm--|             pm--|
    e e e e e e e e   e e e e e. s +e  e
||------------------|--------------------|
||o-----------------|--------------------|
||------------------|--------------------|
||------------------|--------------------|
||o-2-------0---2-3-|-3-------0--2-(2)-3-|
||--0-0-0-0---0-----|-1-1-1-1------------|
 |-rhy fig 9

    pm--|             pm--|
  e e e e e e e e   e e e e e. s +e  e
|-----------------|----------------------||
|-----------------|---------------------o||
|-----------------|----------------------||
|-----------------|----------------------||
|-4-------0---2-3-|-5-------3--2-(2)----o||
|-2-2-2-2---0-----|-3-3-3-3----------3---||
                           end rhy fig 9-|

w/rhy fig 9
    gtr iv
    q   e e  e.   s +e  e   q   e e  e. s +e  e
||------------------------|---------------------|
||o-----------------------|---------------------|
||------------------------|---------------------|
||--7---7-9-10----9-(9)-7-|-----7-9-10--9-(9)-7-|
||o-----------------------|-8-------------------|
||------------------------|---------------------|

  q   e e  e.   s +e  e    q   e e  e. s +e   e
|-----------------------|-------------------------||
|-----------------------|------------------------o||
|-----------------------|--------------7-(7)------||
|-----7-9-10----9-(9)-7-|------7-9-10--------10---||
|-9---------------------|-10---------------------o||
|-----------------------|-------------------------||


        pm---|      pm                pm---|
      e e  e  e  e  e      e   e    e e  e  e  e.  s  +e   e
||-------------------------------|---------------------------|
||o------------------------------|---------------------------|
||-------------------------------|---------------------------|
||-------------------------------|---------------------------|
||o---5----------3---------5---6-|--6----------3---5--(5)--6-|
||----3-3--3--3-----3------------|--4-4--4--4----------------|
|
|     ~~~                           ~~
|     q    e  e  e.    s  +e   e    q    e  e  e.  s  +e   e
||-------------------------------|---------------------------|
||o------------------------------|---------------------------|
||--/12---12-14-15----14-(14)-12-|------12-14-15--14-(14)-12-|
||-------------------------------|-13------------------------|
||o------------------------------|---------------------------|
||-------------------------------|---------------------------|


     pm---|      pm                pm---|
   e e  e  e  e  e      e   e    e e  e  e  e.  s  +e   e
|-----------------------------|-----------------------------||
|-----------------------------|----------------------------o||
|-----------------------------|-----------------------------||
|-----------------------------|-----------------------------||
|--7--------------------5---6-|--8----------6---5--(5)-----o||
|--5-5--5--5--8--5------------|----6--6--6--------------6---||
|
|  ~~                            ~~
|  q    e  e  e.    s  +e   e    q    e  e  e.  s  +e   e
|-----------------------------|-----------------------------||
|-----------------------------|----------------13-(13)-----o||
|------12-14-15----14-(14)-12-|------12-14-15----------15---||
|-14--------------------------|-15--------------------------||
|-----------------------------|----------------------------o||
|-----------------------------|-----------------------------||


 guitar solo
w/rhy fig 8 x4

                                                             ~~~~~
                                     |-------3-------|               |------3------|
   q       q       q       q         q       q       q       q       e     +e      e
|---------------------------------|--------------------------------------------------|
|-20b22---20b22---20b22---20b22---|-20b22---20b22---20b22---20b22---20b22r(20)p===17-|
|---------------------------------|--------------------------------------------------|
|---------------------------------|--------------------------------------------------|
|---------------------------------|--------------------------------------------------|
|---------------------------------|--------------------------------------------------|

   h           q.        e        +q      q       e     +q     e
|-20b22-------20b22-----20b22==|=(20)r---20b22---20b21r(20)---17-|
|------------------------------|---------------------------------|
|------------------------------|---------------------------------|
|------------------------------|---------------------------------|
|------------------------------|---------------------------------|
|------------------------------|---------------------------------|

   e     s  s  e     s  s  e     s  s  e     s  s
|-------------------------------------------------|
|-20b22-20p17-20b22-20p17-20b22-20p17-20b22-20p17-|
|-------------------------------------------------|
|-------------------------------------------------|
|-------------------------------------------------|
|-------------------------------------------------|


   e     s  s  e     s  s  e     s  s  e     s  s
|-------------------------------------------------|
|-20b22-20p17-20b22-20p17-20b22-20p17-20b22-20p17-|
|-------------------------------------------------|
|-------------------------------------------------|
|-------------------------------------------------|
|-------------------------------------------------|

   s  s  s  s  s  s  s  s  s  s  s  s  s  s  s  s    s  s  s  s  s  s  s  s  s  s  s  s  e  e
|-20-17-------------------------------------------|--------------------------------------------|
|-------20-17----17-20-17-------------------------|--------------------------------------------|
|-------------19----------19-17----17-19-17-------|--------------------------------------------|
|-------------------------------19----------19-17-|----17-19-17--------------------------------|
|-------------------------------------------------|-19----------19-17----17-19-17----17--------|
|-------------------------------------------------|-------------------20----------20----17-----|


w/rhy fig 6 x4
   s  s s  s  s s  s  s s  s  s s  s  s s  s
|-12-10-9----10-9-------9--------------------|
|---------12------12-10---12-10-9-12-10-9----|
|-----------------------------------------11-|
|--------------------------------------------|
|--------------------------------------------|
|--------------------------------------------|

   s s  s s  s  s s  s  s s  s  s s  s  s s    s  s s  s  s s  s  s s  s  s s  s  s s  s
|-------------------------------------------|--------------------------------------------|
|-10-9--------------------------------------|--------------------------------------------|
|------11-9-13-11-9----11-9-------9---------|--------------------------------------------|
|-------------------12------12-11---12-11-9-|-12-11-9----11-9-------9--------------------|
|-------------------------------------------|---------12------12-11---12-11-9-12-11-9----|
|-------------------------------------------|-----------------------------------------12-|

                                 ~
   s s  s  s s  s  s s  s  s s s q
|------------------------------------|
|------------------------------------|
|------------------------------------|
|------------------------------------|
|-11-9-------9-----------------------|
|------12-10---12-10-9-12-10-9-x-4---|

                                         t        t        t
  e s s s s s s s s s s s s s s   q      a q      a q      a q
|-------------------------------|------------------------------------|
|-------------------------------|------------------------------------|
|-------------------------5-7---|-7b9---14p7b9---15p7b9---17p7b9-----|
|-----------4s5-7p5---5-7-------|------------------------------------|
|-----4h5h7---------7-----------|------------------------------------|
|-5h7---------------------------|------------------------------------|

   t        t
   a q      a h          +q      h          q.     +e
|------------------------------|------------------------|
|------------------------------|------------------------|
|-15p7b9---17p7pb9r======(7)---|-5tr7-------------------|
|------------------------------|------------7------(7)/-|
|------------------------------|------------------------|
|------------------------------|------------------------|

w/rhy fig 8 x4

   |---3---|  |---3---|  |---3---|  |---3---|
   e  e    e  e  e    e  e  e    e  e  e    e
|---------10s17-13--------------10s17-13------|
|----10--------------15----10--------------15-|
|-10--------------------10--------------------|
|---------------------------------------------|
|---------------------------------------------|
|---------------------------------------------|

   |---3---|  |---3---|  |---3---|  |---3----|
   e  e    e  e  e    e  e  e    e  e  e     e
|---------10s17-13--------------10s17-13-------|
|----10--------------15----10---------------15-|
|-10--------------------10---------------------|
|----------------------------------------------|
|----------------------------------------------|
|----------------------------------------------|

   |---3---|  |---3---|  |---3---|  |---3---|    |---3---|  |---3---|
   e  e    e  e  e    e  e  e    e  e  e    e    e  e    e  e  e    e  h
|-17-13------17-13------17-13------17-13------|-17-13------17-13-----------------|
|---------15---------15---------15---------15-|---------15---------15-17---------|
|---------------------------------------------|----------------------------------|
|---------------------------------------------|----------------------------------|
|---------------------------------------------|----------------------------------|
|---------------------------------------------|----------------------------------|

   |-------3-------|       |-------3-------|
   q       q       q       q       q       q
|-20b22---20b22---20b22---20b22---20b22---20b22---|
|-------------------------------------------------|
|-------------------------------------------------|
|-------------------------------------------------|
|-------------------------------------------------|
|-------------------------------------------------|

   |-------3-------|                            |---3---|  |----3-----|  |---3---|  |---3---|
   q       q       q       q        +e   +e     e  e    e  s  s  e    e  e  e    e  e  e    e
|-20b22---20b22---20b22---20b22====(20)r(20)-|-20-19---17-20-19-17---------17---19-19-17------|
|--------------------------------------------|-----------------------20-19-----------------19-|
|--------------------------------------------|------------------------------------------------|
|--------------------------------------------|------------------------------------------------|
|--------------------------------------------|------------------------------------------------|
|--------------------------------------------|------------------------------------------------|

                              ~~~
   e  s  s  s  s  e  s  s  e  q
|-17-19-17-19-17----19-17----17----|
|----------------20-------20-------|
|----------------------------------|
|----------------------------------|
|----------------------------------|
|----------------------------------|

w/rhy fig 6 x4
   |--3--|  |--3--|  |--3--|  |--3--|  |--3--|  |--3--|  |--3--|  |--3--|
   s  s  s  s  s  s  s  s  s  s  s  s  s  s  s  s  s  s  s  s  s  s  s  s
|-20p19p17-20p19p17-18p17p15-18p17p15-17p16p14-17p16p14-15p13p12-15p13p12-|
|-------------------------------------------------------------------------|
|-------------------------------------------------------------------------|
|-------------------------------------------------------------------------|
|-------------------------------------------------------------------------|
|-------------------------------------------------------------------------|

   |--3--|  |--3--|  |-3--|  |-3--|  |-3-|  |-3-| |-3-| |-3-|
   s  s  s  s  s  s  s  s s  s  s s  s s s  s s s s s s s s s
|-13p12p10-13p12p10-12p11p9-12p11p9-10p9p7-10p9p7-8p7p5-8p7p5-|
|-------------------------------------------------------------|
|-------------------------------------------------------------|
|-------------------------------------------------------------|
|-------------------------------------------------------------|
|-------------------------------------------------------------|

  s s s s s s s s s s s s s s s s   s s s s s s s s s s s s s s e
|-8-5---5-8-5---------------------|----------------------------------|
|-----8-------8-5---5-8-5---------|----------------------------------|
|-----------------7-------7-5---5-|-7-5------------------------------|
|-----------------------------7---|-----7-5---5-7-5---5--------------|
|---------------------------------|---------7-------7---7-5----------|
|---------------------------------|-------------------------7s8-5h===|

           t        t    t        t    t
                    |----6-----|  |----6-----|
  s s s s  s s s s  s s  s s s s  s s  s s s s
|----------------------------------------------|
|----------------------------------------------|
|----------------------------------------------|
|----------------------------------------------|
|----------------------------------------------|
|-8p5h8p5-10p8p5h8-10p8-10p8p5h8-10p8-10p8p5h8-|

                    t     t          t     t
                    |------6------|  |--3--|  |3|
  s s s s s s s  s  s  s  s  s s  s  s  s  s  s e
|---------------------------------------------------|
|---------------------------------------------------|
|---------------------------------------------------|
|-7-5---5-7-5---------------------------------------|
|-----7-------7s10-12p10-12p10p7h10-12p10-12p10p7/--|
|---------------------------------------------------|

   t     t         t     t       t       t    t       t     t
   a  s  a s  s s  a  s  a s  s  a s  s  a s  a  s s  a  s  a s  s s
|--------------------------------------------------------------------|
|-13p10-13p7h10p7-14p10-14p7h10-15p7h10-16p7-16p10p7-17p10-17p7h10p7-|
|--------------------------------------------------------------------|
|--------------------------------------------------------------------|
|--------------------------------------------------------------------|
|--------------------------------------------------------------------|

   t     t       t       t         t     t    t
   a  s  a s  s  a s  s  a s  s s  a  s  a s  a  s s q
|------------------------------------------------------------|
|-18p10-18p7h10-19p7h10-19p7h10p7-20p10-21p7-22p10p7---------|
|------------------------------------------------------------|
|----------------------------------------------------x\\-----|
|------------------------------------------------------------|
|------------------------------------------------------------|

gtr ii
rhy fig 8 x4

rhy fig 6 x4

      pm--|   pm        pm--|
    e e e e e e e e   e e e e e. s +e  e  4x
||------------------|---------------------||
||o-----------------|--------------------o||
||------------------|---------------------||
||------------------|---------------------||
||o-2-------2---2-3-|-3-------0--2-(2)-3-o||
||--0-0-0-0---0-----|-1-1-1-1-------------||


      pm--|   pm        pm--|
    e e e e e e e e   e e e e e. s +e  e  4x
||------------------|---------------------||
||o-----------------|--------------------o||
||------------------|---------------------||
||------------------|---------------------||
||o-4-------2---4-5-|-5-------2--4-(4)-5-o||
||--2-2-2-2---2-----|-3-3-3-3-------------||


        pm--|   pm        pm--|
      e e e e e e e e   e e e e e. s +e  e  3x
|-||------------------|---------------------||
|-||o-----------------|--------------------o||
|-||------------------|---------------------||
|-||------------------|---------------------||
|-||o-5-------3---5-6-|-6-------3--5-(5)-6-o||
|-||--3-3-3-3---3-----|-4-4-4-4-------------||


      pm--|   pm        pm--|
    e e e e e e e e   e e e e e. s +e  e  3x h..       e   w
||------------------|---------------------||-------------|------|
||o-----------------|--------------------o||-------------|------|
||------------------|---------------------||-------------|------|
||------------------|---------------------||-----------9-|-8----|
||o-7-------5---7-8-|-8-------5--7-(7)-8-o||-7---------7-|-6----|
||--5-5-5-5---5-----|-6-6-6-6-------------||-5-----------|------|
                                           |-rhy fig 10      ---|

w/rhy fig 10 x2
  gtr iv
         \\2
  h      h        +w           w             w
|---------------|------------|-------------|------|
|---------------|------------|-------------|------|
|--------0------|-(0)--------|-------------|------|
|---------------|------------|-------------|------|
|---------------|------------|-------------|------|
|---------------|------------|-------------|------|


                                 pm--------------------------------|
  h..         e    w             e   e e e e e e e   e e e e e e e e  4x
|---------------|------------||------------0-------|---------0--------||
|---------------|------------||o---------0---0-----|-------0---0-----o||
|---------------|------------||--------5-------5---|-----5-------5----||
|-------------9-|--8---------||------7-------------|---7-----------7--||
|-7-----------7-|--6---------||o-0---------------7-|-6---------------o||
|-5-------------|------------||--------------------|------------------||
|
|                            gtr iii
|        \\7
| h      h        +w             h..             e   w                4x
|---------------|------------||--------------------|------------------||
|---------------|------------||o-------------------|-----------------o||
|---------------|------------||--------------------|------------------||
|---------------|------------||------------------9-|-8----------------||
|---------------|------------||o-7---------------7-|-6---------------o||
|--------0------|-(0)--------||--5-----------------|------------------||


                     1.,2.,3.            2.
    d5      dm+5      dm6                         e5
    gtr iii
    h       h         h       h           h       h        +w
    |       |         |                   |       |         |
    /       /         /                   /       /         /

    gtr ii
    pm------------------------------------------|
    e e e e e e e e   e e e e e e e e  4x e e e e e e q    +w
||--------1-------1-|-------1-------5--||-------1-----3--|-(3)----||
||o-----3-------3---|-----3-------3---o||-----3-----5----|--------||
||----2-------3-----|---4-------5------||---4-----4------|--------||
||--0-------0-------|-0-------0--------||-0--------------|--------||
||o-----------------|-----------------o||----------------|--------||
||------------------|------------------||----------------|--------||


    e e e e +q   q    q  q   h         e e e e +q   q    q  h.            4x
||------------------|----------------|-----------------|------------------||
||o-----------------|----------------|-----------------|-----------------o||
||------------------|----------------|-----------------|------------------||
||------------------|----9-----------|-----------------|------------------||
||o-5-4-4-4-(4)--5--|-2--7---2-------|-5-4-4-4-(4)--5--|-2--2------------o||
||--3-2-2-2-(2)--3--|-0------0-------|-3-2-2-2-(2)--3--|-0--0-------------||
|-rhy fig 11                                               end rhy fig 11-|
|
|   gtr iv
|                            ~~~~~                               ~~~~~
|   w                 h      h         w                 h       h        4x
||------------------|----------------|-----------------|------------------||
||o-----------------|----------------|-----------------|--------15b17----o||
||------------------|-------14b16----|-----------------|------------------||
||------------------|----------------|-----------------|------------------||
||o-----------------|----------------|-----------------|-----------------o||
||------------------|----------------|-----------------|------------------||


w/rhy fig 11
        |--3--|
     e  s  s  s  e  e  +q    q     a  q  q  h
||------------------------------|----------------|
||o-12-10h12p10----10-(10)--12--|----------------|
||--12-11h12p11-12-11-(11)--12--|-10h12--7--9----|
||--------------14--------------|-12h14--5--9----|
||o-----------------------------|----------------|
||------------------------------|----------------|


      |--3--|
   e  s  s  s  e  e  +q    q     a  q   h.
|-----------------------------|----------------||
|-12-10h12p10----10-(10)--12--|---------------o||
|-12-11h12p11-12-11-(11)--12--|-10h12----------||
|-------------14--------------|-12h14---9------||
|-----------------------------|--------10-----o||
|-----------------------------|----------------||


w/rhy fig 11
        |--3--|
     e  s  s  s  e  e  +q    q     a  q   q  h
||--10--9h10p=9-----9--(9)--10--|-----------------|
||o-12-10-12-10-12-10-(10)--12--|-10h12------8----|
||--12-11h12p11-12-11-(11)--12--|-10-12--11--9----|
||--------------14--------------|-12h14--12--9----|
||o-----------------------------|--------10-------|
||------------------------------|-----------------|


                               1.
      |--3--|
   e  s  s  s  e  e  +q    q     a  q   h.
|-10--9h10p=9-----9--(9)--10--|----------------||
|-12-10-12-10-12-10-(10)--12--|-10h12---------o||
|-12-11h12p11-12-11-(11)--12--|-10-12---7------||
|-------------14--------------|-12h14---9------||
|-----------------------------|--------10-----o||
|-----------------------------|----------------||


  2.           h.=h
                                        >
      Q   H    E E   +Q   E E +H       +W
|------------------|-----------------|--------||
|------------------|-----------------|--------||
|------------------|-----------------|--------||
|------------------|-----------------|--------||
|-----2---2----9-9-|-(9)--9-9-(9)----|-(9)----||
|-----0---0----7-7-|-(7)--7-7-(7)----|-(7)----||
|
|                                       >
|  a  Q   H    E E   +Q   E E +H       +W
|------------------|-----------------|--------||
|-10h12--------7-7-|-(7)-------------|--------||
|-10-12---7----7-7-|-(7)--7-7-(7)----|-(7)----||
|-12h14---9----9-9-|-(9)--9-9-(9)----|-(9)----||
|--------10--------|------5-5-(5)----|-(5)----||
|------------------|-----------------|--------||


  Gtr I
Rhy Fig 1

w/Rhy Fig 1 - 1st 4 bars
  Gtr IV
  W                 W                 W                 W
|-5---------------|-----------------|-6---------------|-----------------|
|-----------------|-----------------|-----------------|-----------------|
|-----------------|-----------------|-----------------|-----------------|
|-----------------|-----------------|-----------------|-----------------|
|-----------------|-----------------|-----------------|-----------------|
|-----------------|-----------------|-----------------|-----------------|


                     H.=H
  E E E E  E E E E   E E E E  E E  E E   E    E E E E E E E    W
|---8----------8---|---8-----------8---|------5---------5---|-^5----||
|-------8--------8-|-------8---------8-|----------6-------5-|-^6----||
|-----9------9-----|-----9------9------|--------7-----7-----|-^7----||
|-0-------10-------|-0-------10--------|-0----------7-------|-^0----||
|------------------|-------------------|--------------------|-------||
|------------------|-------------------|--------------------|-------||
| H        H         H        H          H          H
|
| W                  H        E Q.       H          H          W
|-8----------------|----------5-6------|-5tr6---------------|-------||
|------------------|-------------------|--------------------|-------||
|------------------|-------------------|--------------------|-------||
|------------------|-------------------|--------------------|-------||
|------------------|-------------------|--------------------|-------||
|------------------|-------------------|--------------------|-------||


  Q=90
                             3/4
  Gtr II
  Q  Q  Q  Q    Q   Q  H      +H.
|-------------|-------------|--------|
|-------------|-------------|--------|
|-------------|-------------|--------|
|-7--5--7--3--|-7--10--7----|-(7)----|
|-5--3--5--1--|-5---8--5----|-(5)----|
|-------------|-------------|--------|


                H.=H        Q=72
 4/4
                       TP      TP
  Q  Q  Q  Q    Q   Q  H      +W                          H     Q   Q
|-------------|-------------|--------------------------|--------------------|
|-------------|-------------|--------------------------|--------------------|
|-------------|-------------|--------------------------|--------------------|
|-7--5--7--3--|-7--10--7----|-(7)----------------------|--7-----7\\---------|
|-5--3--5--1--|-5---8--5----|-(5)----------------------|--5-----5\\---------|
|-------------|-------------|--------------------------|--------------------|
|
| Gtr IV
|                              TPTPTPTPTPTPTPTPTPTPTPTP
|                              |-3-| |-3-| |-3-| |-3-|
| W             W              E E E E E E E E E E E E    H     Q   Q
|-------------|-------------|--------------------------|--------------------|
|-------------|-------------|--------------------------|--------------------|
|-------------|-------------|--------------------------|--------------------|
|-------------|-------------|--------------------------|--------------------|
|-------------|-------------|--------------------------|-------12\\---------|
|-------------|-------------|--3S1S3S5S3S5S6S5S6S8S6S8S|=10----10\\---------|


3.MASTER OF PUPPETS

Intro
-----------------------|
-----------------------|
-9--------7---6---5~~--|
-9--------7---6---5~~--|
-7--------5---4---3~~--|
-0---------------------|

(4 Times)
-----------------------|-------------|-----------------------------------|
-----------------------|-------------|-----------------------------------|
-----------------------|--7---6---5--|-----------------------------------|
-----------------------|--7---6---5--|-----------------------------------|
------7--------6-------|--5---4---3--|-----------------------------------|
-0-0------0-0-----0-0--|-------------|--0-0-7-0-0-6-0-0-5-0-4-0-3-0-2-0--|
 \' \'      \' \'     \' \'                   \' \'   \' \'   \' \'   \'   \'   \'   \'

(2Times)
------------------------------------------------------------------|
------------------------------------------------------------------|
------------------------------------------------------------------|
------------------------------------------------------------------|
-----2-----3-----4-----3-----2-2-----2-----3-----5/4---5/4---5/4--|
-0-1---0-1---0-1---0-1---0-1-----0-1---0-1-----0-3/2-0-3/2-0-3/2--|
 \'     \'     \'     \'     \'       \'     \'       \'     \'     \'


-----------------------------------------------------------------|
-----------------------------------------------------------------|
-----------------------------------------------------------------|
------------------------------------------------------------4----|
-----2-----3-----4-----3-----2-2-----2-----3-----4-----3----2----|
-0-1---0-1---0-1---0-1---0-1-----0-1---0-1---0-1---0-1----0------|
 \'     \'     \'     \'     \'       \'     \'     \'     \'      \'
------------------------------------------------------------------|
------------------------------------------------------------------|
------------------------------------------------------------------|
------------------------------------------------------------------|
-----2-----3-----4-----3-----2-2-----2-----3-----5/4---5/4---5/4--|
-0-1---0-1---0-1---0-1---0-1-----0-1---0-1-----0-3/2-0-3/2-0-3/2--|
 \'     \'     \'     \'     \'       \'     \'       \'     \'     \'
------------------------------------------------------------------|
------------------------------------------------------------------|
------------------------------------------------------------------|
-------------------------------------------------------------4----|
-----2-----3-----4-----3-----2-2-----2-----3-----4-----3-----2----|
-0-1---0-1---0-1---0-1---0-1-----0-1---0-1---0-1---0-1----0-------|
 \'     \'     \'     \'     \'       \'     \'     \'     \'      \'

----------------------------------------------|
----------------------------------------------|
----------------------------------------------|
----------------------------------------------|
-----2-----3-----4-----3-----2-2-----2-----3--|
-0-1---0-1---0-1---0-1---0-1-----0-1---0-1----|
 \'     \'     \'     \'     \'       \'     \'
----------------------------------------|
----------------------------------------|
----------------------------------------|
-------------------------------------2--|
--5/4---5/4---5/4---5/4---5/4---5/4--2--|
--3/2-0-3/2-0-3/2-0-3/2-0-3/2-0-3/2--0--|
      \'     \'     \'     \'     \'

Lead In
----------------------------------------|
----------------------------------------|
----------------------------------------|
------8------8------8------8------8~~~--|
----7------7------7------7------7-------|
--0------0------0------0------0---------|
  \'   *  \'   *  \'   *  \'   *  \'   *

* = Here it is a Semi-Harmonic (Give it a slightest touch of your thumb)


Verse (First Part)(6 Times)
------------------------------------------------------------|
------------------------------------------------------------|
------------------------------------------------------------|
------------------5/7--8/7--5/7-------------------5/7--5/7--|
------------------5/7--8/7--5/7-------------------5/7--5/7--|
-0-0-0-0-0-0-0-0--3/5--6/5--3/5--0-0-0-0-0-0-0-0--3/5--3/5--|
 \' \' \' \' \' \' \' \'                 \' \' \' \' \' \' \' \'

First Part With the Lyrics:

-End of passion play, crumbling away
-I\'m your source of self-destruction
-Veins that pump with fear, sucking darkest clear
-Leading on your death\'s construction


Verse (Second Part)(2 Times)
------------------------------------------------------------|
------------------------------------------------------------|
------------------------------------------------------------|
------------------4-4---5/4-4-4-------------------4----4----|
------------------0-2---3/2-0-2-------------------0h2--0h2--|
-2-2-2-2-2-2-2-2----------------2-2-2-2-2-2-2-2-------------|
 \' \' \' \' \' \' \' \'                \' \' \' \' \' \' \' \'

Second Part with the Lyrics:

-Taste me, you will see
-More is all you need
-You\'re dedicated to
-How I\'m killing you


Lead in To Pre-Chorus
------------------|
------------------|
-4-4-4-4-4-4-4-4--|
-4-4-4-4-4-4-4-4--|
-2-2-2-2-2-2-2-2--|
------------------|
 \' \' \' \' \' \' \' \'

Pre-Chorus (3 Times)
---------------------------------------------------------------------|
---------------------------------------------------------------------|
-9---------7--9-----------------------------------------------8------|
-9---------7--9--------9--------------------10---9------------8---9--|
-7---------5--7---7-9-----10-9h10-----------10---9------------6---9--|
-0----0-0---------------------------8-8-8-8--8---7---8-8-8-8------7--|
      \' \'         \' \'               \' \' \' \'          \' \' \' \'

Then This
-----------------------------------------------------------------------------|
-----------------------------------------------------------------------------|
-9---------7--9--------------------------------------------------------------|
-9---------7--9--------9--------------------10---9-----7--5--4------4--------|
-7---------5--7---7-9-----10-9h10-----------10---9-----9--7--6------6--7--6--|
-0----0-0---------------------------8-8-8-8--8---7---------------------8--7--|
      \' \'         \' \'               \' \' \' \'            \'  \'  \'      \'  \'  \'
Pre-Chorus with the Lyrics:

-Come crawling faster
-Obey your master
-Your life burns faster
-Obey your master


Lead In to Chorus
--------|--------|
--------|--------|
--------|--------|
--2--2--|--3--3--|
--2--2--|--3--3--|
--0--0--|--1--1--|

Lead In to Chorus with the Lyrics:

-Master!
-Master!

Chorus (First Part)
--------------------------------------------------|
--------------------------------------------------|
--------------------------------------------------|
----------------------------5~-------4-------2~---|
--2~-----------------5~-----3~--0-0--2--0-0--0~---|
--0~--0-0--2p0--0-0--3~---------------------------|
      \' \'       \' \'             \' \'     \' \'

--------------------------------------------------|
--------------------------------------------------|
--------------------------------------------------|
--7~-------5-------4~-------9~-------7-------5~---|
--5~-------3-------2~-------7~-------5-------3~---|
------3-3-----3-3---------------0-0-----0-0-------|
      \' \'     \' \'           \' \'     \' \'

First Chorus Part with the Lyrics:
-Master of puppets, I\'m pulling your strings
-Twisting your mind and smashing your dreams
-Blinded by me, you can\'t see a thing
-Just call my name, \'cause I\'ll hear you scream


Chorus (Second Part)
--------|--------|-------------------------|--------|--------|
--------|--------|-------------------------|--------|--------|
--------|--------|-------------------------|--------|--------|
--2--2--|--3--3--|---------------------5~--|--2--2--|--3--3--|
--2--2--|--3--3--|--2~-----------------3~--|--2--2--|--3--3--|
--0--0--|--1--1--|--0~--0-0--2p0--0-0------|--0--0--|--1--1--|
                        \' \'       \' \'

Second Chorus Part with the Lyrics:
-Master!
-Master!
-Just call my name, \'cause I\'ll hear you scream
-Master!
-Master!


------------------------------------------------------------------|
------------------------------------------------------------------|
------------------------------------------------------------------|
-------------------------------------------------------------4----|
-----2-----3-----4-----3-----2-2-----2-----3-----4-----3-----2----|
-0-1---0-1---0-1---0-1---0-1-----0-1---0-1---0-1---0-1----0-------|
 \'     \'     \'     \'     \'       \'     \'     \'     \'      \'

----------------------------------------------|
----------------------------------------------|
----------------------------------------------|
----------------------------------------------|
-----2-----3-----4-----3-----2-2-----2-----3--|
-0-1---0-1---0-1---0-1---0-1-----0-1---0-1----|
 \'     \'     \'     \'     \'       \'     \'
--------------------------------------|
--------------------------------------|
--------------------------------------|
--------------------------------------|
--5/4---5/4---5/4---5/4---5/4---5/4---|
--3/2-0-3/2-0-3/2-0-3/2-0-3/2-0-3/2---|

Verse (First Part)(6 Times)
------------------------------------------------------------|
------------------------------------------------------------|
------------------------------------------------------------|
------------------5/7--8/7--5/7-------------------5/7--5/7--|
------------------5/7--8/7--5/7-------------------5/7--5/7--|
-0-0-0-0-0-0-0-0--3/5--6/5--3/5--0-0-0-0-0-0-0-0--3/5--3/5--|
 \' \' \' \' \' \' \' \'                 \' \' \' \' \' \' \' \'

First Part With the Lyrics:

-Needlework the way, never you betray
-Life of death becoming clearer
-Pain monopoly, ritual misery
-Chop your breakfast on a mirror


Verse (Second Part)(2 Times)
------------------------------------------------------------|
------------------------------------------------------------|
------------------------------------------------------------|
------------------4-4---5/4-4-4-------------------4----4----|
------------------0-2---3/2-0-2-------------------0h2--0h2--|
-2-2-2-2-2-2-2-2----------------2-2-2-2-2-2-2-2-------------|
 \' \' \' \' \' \' \' \'                \' \' \' \' \' \' \' \'

Second Part with the Lyrics:

-Taste me, you will see
-More is all you need
-You\'re dedicated to
-How I\'m killing you


Lead in To Pre-Chorus
------------------|
------------------|
-4-4-4-4-4-4-4-4--|
-4-4-4-4-4-4-4-4--|
-2-2-2-2-2-2-2-2--|
------------------|
 \' \' \' \' \' \' \' \'

Pre-Chorus (3 Times)
---------------------------------------------------------------------|
---------------------------------------------------------------------|
-9---------7--9-----------------------------------------------8------|
-9---------7--9--------9--------------------10---9------------8---9--|
-7---------5--7---7-9-----10-9h10-----------10---9------------6---9--|
-0----0-0---------------------------8-8-8-8--8---7---8-8-8-8------7--|
      \' \'         \' \'               \' \' \' \'          \' \' \' \'

Then This
-----------------------------------------------------------------------------|
-----------------------------------------------------------------------------|
-9---------7--9--------------------------------------------------------------|
-9---------7--9--------9--------------------10---9-----7--5--4------4--------|
-7---------5--7---7-9-----10-9h10-----------10---9-----9--7--6------6--7--6--|
-0----0-0---------------------------8-8-8-8--8---7---------------------8--7--|
      \' \'         \' \'               \' \' \' \'            \'  \'  \'      \'  \'  \'
Pre-Chorus with the Lyrics:

-Come crawling faster
-Obey your master
-Your life burns faster
-Obey your master


Lead In to Chorus
--------|--------|
--------|--------|
--------|--------|
--2--2--|--3--3--|
--2--2--|--3--3--|
--0--0--|--1--1--|

Lead In to Chorus with the Lyrics:

-Master!
-Master!

Chorus (First Part)
--------------------------------------------------|
--------------------------------------------------|
--------------------------------------------------|
----------------------------5~-------4-------2~---|
--2~-----------------5~-----3~--0-0--2--0-0--0~---|
--0~--0-0--2p0--0-0--3~---------------------------|
      \' \'       \' \'             \' \'     \' \'

--------------------------------------------------|
--------------------------------------------------|
--------------------------------------------------|
--7~-------5-------4~-------9~-------7-------5~---|
--5~-------3-------2~-------7~-------5-------3~---|
------3-3-----3-3---------------0-0-----0-0-------|
      \' \'     \' \'           \' \'     \' \'

First Chorus Part with the Lyrics:
-Master of puppets, I\'m pulling your strings
-Twisting your mind and smashing your dreams
-Blinded by me, you can\'t see a thing
-Just call my name, \'cause I\'ll hear you scream


Chorus (Second Part)
--------|--------|-------------------------|--------|--------|
--------|--------|-------------------------|--------|--------|
--------|--------|-------------------------|--------|--------|
--2--2--|--3--3--|---------------------5~--|--2--2--|--3--3--|
--2--2--|--3--3--|--2~-----------------3~--|--2--2--|--3--3--|
--0--0--|--1--1--|--0~--0-0--2p0--0-0------|--0--0--|--1--1--|
                        \' \'       \' \'

Second Chorus Part with the Lyrics:
-Master!
-Master!
-Just call my name, \'cause I\'ll hear you scream
-Master!
-Master!


Interlude (James)(Clean w/Chorus effect)(2Times)
----------------------0h2p0-------3---------------------------------------------------|
----------------3------------3------------3---3-------0-------0----------0----------0-|
-------0-----2-----2------------2-------0---0---0-----------2---------2----------2----|
-----2----0----------------------------------------2--------------------------1-------|
---2---------------------------------3-------------------0-------0-2--------2---------|
-0------------------------------------------------------------------------------------|

James & Kirk Solo
-----19/22--19--------20---17-------------------20---17-------|
-20---------20---20---22---19---19---19-19-19---22---19---19--|
-21--------------21-------------19---19-19-19-------------19--|
--------------------------------------------------------------|
--------------------------------------------------------------|
--------------------------------------------------------------|

-19---15-------------------19---15--------17---15h17p15-14-------|
-20---17---17---17-17-17---20---17---17---19---17h19p17-16---17--|
-----------17---17-17-17-------------17----------------------17--|
-----------------------------------------------------------------|
-----------------------------------------------------------------|
-----------------------------------------------------------------|


-----------14-------14---16---17---19--|
-16---17--------17--16---17---19---20--|
-16---17--/19---17---------------------|
---------------------------------------|
---------------------------------------|
---------------------------------------|

James Solo
---------------14-15---14-15-17-15-14-19-15-12h15p12----------------|
-17---------17---------------------------------------13-----15b-15b-|
--------------------------------------------------------------------|
--------------------------------------------------------------------|
--------------------------------------------------------------------|
--------------------------------------------------------------------|

-15-14------15-14-------------------------------------------------|
-------12---------12h15p12-------------15b------------------------|
--------------------------------12-14--14b--14b---12----12--------|
-----------------------------------------------------14-----12----|
------------------------------------------------------------------|
------------------------------------------------------------------|

----------------------------------------------------------------------------|
----------------------------------------------------------------------------|
-12----14-12---11--------14---12---11h12p11---------------------------------|
--------------------12----------------------10------------9-10--------9-10--|
-------------------------------------------------------12-------------------|
----------------------------------------------------------------------------|

-----------------------------------15---14--11h12p11-----------/19--|
-------------------------12--------------------------12---10--------|
-------------9--11--12-------12-------------------------------------|
-12--10--12---------------------------------------------------------|
--------------------------------------------------------------------|
--------------------------------------------------------------------|

Now Back to this:
-----19/22--19--------20---17-------------------20---17-------|
-20---------20---20---22---19---19---19-19-19---22---19---19--|
-21--------------21-------------19---19-19-19-------------19--|
--------------------------------------------------------------|
--------------------------------------------------------------|
--------------------------------------------------------------|

-19---15-------------------19---15--------17---15h17p15-14-------|
-20---17---17---17-17-17---20---17---17---19---17h19p17-16---17--|
-----------17---17-17-17-------------17----------------------17--|
-----------------------------------------------------------------|
-----------------------------------------------------------------|
-----------------------------------------------------------------|


-----------14-------14---16---17---19--|
-16---17--------17--16---17---19---20--|
-16---17--/19---17---------------------|
---------------------------------------|
---------------------------------------|
---------------------------------------|

(James)(Distorted)(2Times)
----------------------0h2p0-------3---------------------------------------------------|
----------------3------------3------------3---3-------0-------0----------0----------0-|
-------0-----2-----2------------2-------0---0---0-----------2---------2----------2----|
-----2----0----------------------------------------2--------------------------1-------|
---2---------------------------------3-------------------0-------0-2--------2---------|
-0------------------------------------------------------------------------------------|
 \' \' \' \'  \'  \'  \'  \'                 \'  \'   \'   \'  \'     \'  \'    \' \'  \'     \' \'  \'

Build Up (First Part)
-----------------------------------|
-----------------------------------|
-4-4-4-4-4-4-4-4--4-4-4-4-4-4-4-4--|
-2-2-2-2-2-2-2-2--2-2-2-2-2-2-2-2--|
-2-2-2-2-2-2-2-2--2-2-2-2-2-2-2-2--|
-0-0-0-0-0-0-0-0--0-0-0-0-0-0-0-0--|
 \' \' \' \' \' \' \' \'  \' \' \' \' \' \' \' \'

Build Up (Second Part)(6 Times)
-------------------------------------|
-------------------------------------|
-------------------------------------|
-----------------------------------6-|
--4-4-5-4-4-4-5-4-4--4-4-5-4-4-4-5-4-|
--2-2-3-2-2-2-3------2-2-3-2-2-2-3---|
  \' \' \' \' \' \' \' \' \'  \' \' \' \' \' \' \' \'

Second Part of Build Up with lyrics:

-Master, master
-Where\'s the dreams that I\'ve been after?
-Master, master
-You promised only lies
-Laughter, laughter
-All I hear and see is laughter
-Laughter, laughter
-Laughing at my cries


Lead In
-------------------|
-------------------|
-------------------|
--5~~~----4~~~-----|
--5~~~----4~~~-----|
--3~~~----2~~~-----|


Lead In with Lyrics:

-Fix Me!


Kirk Fast Solo
-17p12----------12-17p12----------12-17p12----------12-15p12----------12--|
-------13-12-13----------13-12-13----------13-12-13----------13-12-13-----|
--------------------------------------------------------------------------|
--------------------------------------------------------------------------|
--------------------------------------------------------------------------|
--------------------------------------------------------------------------|

-17p12----------12-17p12----------12-17p12-------12-12-15p12----|
-------13-13-12----------13-12-13----------13-12-------------13-|
----------------------------------------------------------------|
----------------------------------------------------------------|
----------------------------------------------------------------|
----------------------------------------------------------------|

-----19-19-17-17-17-17-15-15-15-14-14-14-14-17-17-17-15-15-15-14--|
-/17--------------------------------------------------------------|
------------------------------------------------------------------|
------------------------------------------------------------------|
------------------------------------------------------------------|
------------------------------------------------------------------|

-14-14-14-14---------------------------------17h19------------------|
-------------15---17b--17b---------17p15p14---------15p14-----------|
-----------------------------------------------------------16-14-==-|
--------------------------------------------------------------------|
--------------------------------------------------------------------|
--------------------------------------------------------------------|

-x-------------------------------------------------------------|
---------------------------------------------------------------|
---------------------------------------------------------2--4--|
---------------------------------------------------------------|
---------------------------------------------------------------|
---------------------------------------------------------------|

x = This note produced by pulling string off edge of fretboard and
\"fretting\" it against pickup.

---------------------------------------------------------------------|
------------------------------------/15--13--12------13--12----------|
-2b-4--0--2-0h2----------------------------------14----------14--12--|
-----------------4--2---2-h4-----------------------------------------|
---------------------------------------------------------------------|
---------------------------------------------------------------------|

-----------------------------------------------------------|
-------------12----12-12-12-12-12-12-15-13-12-15-13-12-13--|
-11--12--14------------------------------------------------|
-----------------------------------------------------------|
-----------------------------------------------------------|
-----------------------------------------------------------|

-12----------12-------------14-------14-------15-15--------|
----15-15-13----15-13h15-15----17-15----15-17-------17/19--|
-----------------------------------------------------------|
-----------------------------------------------------------|
-----------------------------------------------------------|
-----------------------------------------------------------|

-17-------19-17-------17----------19-17-------17----------19-17--------|
----20-19-------19-19----21-19-19-------19-19----21-19-19-------19-19--|
-----------------------------------------------------------------------|
-----------------------------------------------------------------------|
-----------------------------------------------------------------------|
-----------------------------------------------------------------------|

-17-------------19-17-------------14--14------14------------14--|
----21b-19b-19b-------19b-19b-17b--------17b------17b-17b-------|
----------------------------------------------------------------|
----------------------------------------------------------------|
----------------------------------------------------------------|
----------------------------------------------------------------|

-19-p14------19-p14--14----------14------14------14-14-14------14-14--|
---------17b---------17b-----17b-----17b-----17b-----------17b--------|
----------------------------------------------------------------------|
----------------------------------------------------------------------|
----------------------------------------------------------------------|
----------------------------------------------------------------------|

-----15b-----15b-----15b-----15b-----17b-----17b-----18b-----18b--|
-18b-----18b-----18b-----18b-----20b-----20b-----21b-----21b------|
------------------------------------------------------------------|
------------------------------------------------------------------|
------------------------------------------------------------------|
------------------------------------------------------------------|

-----19b-----19b-22b-----/////---------------|
-22b-----22b---------------------------------|
---------------------------------------------|
---------------------------------------------|
---------------------------------------------|
---------------------------------------------|


Post solo (2Times)
----------------------------------------------------------------|
----------------------------------------------------------------|
----------------------------------------------------------------|
-----3-----3-----3-----3-------------3-----3-----3-----3-----4--|
-----3-----3-----3-----3-----2-2-----3-----3-----3-----3-----2--|
-0-0-1-0-0-1-0-0-1-0-0-1-0-0-----0-0-1-0-0-1-0-0-1-0-0-1-0-0----|
 \' \'   \' \'   \' \'   \' \'   \' \'     \' \'   \' \'   \' \'   \' \'   \' \'
Then this -
------------------------------------------------
Добавлено: 12.03.2012
Другие материалы по этой песне:
  • Аккорды и текст

Страница создана 12.03.2012
http://primanota.ru/metallica/s-and-m-album-chords.htm
Привет, Гость.
Предлагаем пройти революционный курс по гитаре.
Подарок от PrimaNota.Ru, забирай!