PrimaNota.ru - самый крупный в мире бесплатный архив песенных текстов, аккордов, табулатур и нот


Metal Church - Watch The Children Pray - аккорды и текст, таба, драм-таба, видео

Регистрация Запомнить меня
Войти через:  Facebook Google Twitter Vk Yandex Mail.ru

Metal Church - Watch The Children Pray - аккорды и текст, таба, драм-таба, видео

Печатать
Просмотров: 211
Watch The Children Pray
Metal Church
		   Band:  Metal Church
Album: The Dark
Song:  Watch The Children Play

Copyright (c)(1986)

Transcribed By: Shawn B
Email:  mrbuckskater@hotmail.com


.  - palm mute           /  - slide up to
\  - slide down to       ~  - vibrato
h  - hammer on           b  - Bend
p  - pull off            Suffixes for bend
t  - tap                 f  - full bend    h - half bend
ph - pinched harmonic    q  - quarter bend t - tap bend
*  - see comment         ^  - Hold bend    r release bend
x  - Stuccatto           ~  - vibrato bend
,  - slight palm mute    () - ghost note, sustained note
"  - tremolo note         > - Trill

Tunning Eb Ab Db Gb Bb Eb

     Em       Em     Em
|-------------------------------------------------------------------|
|-------------------------------------------------------------------|
|------0-----------0-----0------------------------------------------|
|---------2------2---------2------------REAPEAT---------------------|
|---2---------2-------2---------------------------------------------|
|-0---------0-----------------3--2----------------------------------|

Pre-Chorus
|-------------------------------------------------------------------|
|-------------------------------------------------------------------|
|-------------------------------------------------------------------|
|-5--5--5--5--4--4--4--4--3--3--3--3--2--2--2--2--2--2--2--2--------|
|-5--5--5--5--4--4--4--4--3--3--3--3--2--2--2--2--2--2--2--2--------|
|-3--3--3--3--2--2--2--2--1--1--1--1--0--0--0--0--0--0--0--0--------|
  .  .  .  .  .  .  .  .  .  .  .  .  .  .  .  .  .  .  .  .

|-------------------------------------------------------------------|
|-------------------------------------------------------------------|
|-------------------------------------------------------------------|
|-5--5--5--5--4--4--4--4--3--3--3--3--------------------------------|
|-5--5--5--5--4--4--4--4--3--3--3--3--------------------------------|
|-3--3--3--3--2--2--2--2--1--1--1--1--------------------------------|
  .  .  .  .  .  .  .  .  .  .  .  .  Heavy Distortion

Chorus
|--------------------------------------------------------------------------|
|--------------------------------------------------------------------------|
|-----------------4---------------------5---------------------7------------|
|-2---2---2---2---4-----2---2---2---2---5-----2---2---2---2---7-----7---6--|
|-2---2---2---2---2-----2---2---2---2---3-----2---2---2---2---5-----7---6--|
|-0---0---0---0---------0---0---0---0---------0---0---0---0---------5---4--|
  .   .   .   .         .   .   .   .         .   .   .   .
      Lots of Distortion        Reapeat a couple of times

|--------------------------------------------------------------------------|
|--------------------------------------------------------------------------|
|-----------------4---------------------5---------------------7\4----------|
|-2---2---2---2---4-----2---2---2---2---5-----2---2---2---2---7\4-----2----|
|-2---2---2---2---2-----2---2---2---2---3-----2---2---2---2---5\2-----2----|
|-0---0---0---0---------0---0---0---0---------0---0---0---0-----------0----|
  .   .   .   .         .   .   .   .         .   .   .   .


Solo Rythem
|-------------------------------------------------------------------|
|-------------------------------------------------------------------|
|--------4-----------5-----------7----------------------------------|
|--------4-----------5-----------7---7--6---------------------------|
|--------2-----------3-----------5---7--6---------------------------|
|-0--000------0--000------0--000-----5--4---------------------------|
  .  ...      .  ...      .  ...   Reapeat this the whole solo


|-------------------------------------------------------------------|
|-------------------------------------------------------------------|
|--------4-----------5-----------7\4--------------------------------|
|--------4-----------5-----------7\4--------------------------------|
|--------2-----------3-----------5\2--------------------------------|
|-0--000------0--000------0--000------------------------------------|
  .  ...      .  ...      .  ...   Then this at the end of the solo

|-------------------------------------------------------------------|
|-------------------------------------------------------------------|
|-------------------------------------------------------------------|
|-------------------------------------------------------------------|
|-------------------------------------------------------------------|
|-------------------------------------------------------------------|

That's all I have so far, I'm going to keep working at it to see what else I can come up with. Please e-mail me at mrbuckskater@hotmail.com with any corrections or anything. Thanks! This is also my first tab I have ever done, so I don't know how good it is.     
Добавлено: 25.09.2013
Другие материалы по этой песне:

Страница создана 08.03.2012
http://primanota.ru/metal-church/watch-the-children-pray-chords.htm
Привет, Гость.
Предлагаем пройти революционный курс по гитаре.
Подарок от PrimaNota.Ru, забирай!