PrimaNota.ru - самый крупный в мире бесплатный архив песенных текстов, аккордов, табулатур и нот


Metal Church - Watch the children play - таба, видео

Регистрация Запомнить меня
Войти через:  Facebook Google Twitter Vk Yandex Mail.ru

Metal Church - Watch the children play - таба, видео

Печатать
Просмотров: 130
Уроки эстрадного вокала в Санкт-Петербурге


Fig. 1A x3
e|-----------|-----------|-----------|-----------|
B|-----------|-----------|-----------|-----------|
G|------0----|--------0--|------0----|-----------|
D|--------4--|------2----|----0---2--|-----------|
A|----2------|----3------|--4--------|----5---5--|
E|--0--------|--0--------|-----------|--3---2----|

e|-----------|-----------|-----------|-----------|
B|-----------|-----------|-----------|-----------|
G|------0----|--------0--|------0----|-----------|
D|--------4--|------2----|----0---2--|-----------|
A|----2------|----3------|--4--------|----5---5--|
E|--0--------|--0--------|-----------|--3---2----|

e|-----------|-----------|-----------|-----------|
B|-----------|-----------|-----------|-----------|
G|------0----|--------0--|------0----|-----------|
D|--------4--|------2----|----0---2--|-----------|
A|----2------|----3------|--4--------|----5---5--|
E|--0--------|--0--------|-----------|--3---2----|

e|-----------|-----------|-----------|-----------|
B|-----------|-----------|-----------|-----------|
G|------0----|--------0--|------0----|-----------|
D|--------4--|------2----|-----------|-----------|
A|----2------|----3------|----4---4--|----5---5--|
E|--0--------|--0--------|--5--------|--3---2----|

Fig. 2 x4
e|-------------------|
B|------0---------5--|
G|----5---5-----5----|
D|--7---------7------|
A|----------0--------|
E|-------------------|

Fig. 3 x1
e|-----------|-----------|-----------|-----------|
B|------0----|------0----|------0----|------0----|
G|----5---5--|----4---4--|----4---4--|----4---4--|
D|--7--------|--5--------|--4--------|--3--------|
A|-----------|-----------|-----------|-----------|
E|-----------|-----------|-----------|-----------|

Fig. 4 x2
e|-----------------------------------|
B|-----------------------------------|
G|-----------------------------------|
D|--2-2-2-2-5-5-5-5-4-4-4-4-3-3-3-3--|
A|--2-2-2-2-5-5-5-5-4-4-4-4-3-3-3-3--|
E|--0-0-0-0-3-3-3-3-2-2-2-2-1-1-1-1--|
    . . . . . . . . . . . . . . . .

Fig. 5A x3
e|-----------------|-----------------|-----------------|--------------|
B|-----------------|-----------------|-----------------|--------------|
G|----------4---4--|----------4---4--|----------7---7--|--------------|
D|----------4---4--|----------5---5--|----------7---7--|--------------|
A|----------2---2--|----------3---3--|----------5---5--|--5--5--4--4--|
E|--0-0-0-0--------|--0-0-0-0--------|--0-0-0-0--------|--3--3--2--2--|
    . . . .           . . . .           . . . .

Fig. 5B x1
e|-----------------|-----------------|-----------------|
B|-----------------|-----------------|-----------------|
G|----------4---4--|----------4---4--|----------7---4--|
D|----------4---4--|----------5---5--|----------7---4--|
A|----------2---2--|----------3---3--|----------5---2--|
E|--0-0-0-0--------|--0-0-0-0--------|--0-0-0-0--------|
    . . . .           . . . .           . . . .

Fill 1 x1
e|-----|
B|-----|
G|-----|
D|--2--|
A|--2--|
E|--0--|

Repeat Fig. 1A x2
Repeat Fig. 4 x2
Repeat Fig. 5A x3
Repeat Fig. 5B x1

Fig. 6A x3
e|-----------|-----------|-----------|-----------|
B|-----------|-----------|-----------|-----------|
G|------4----|------2----|------0----|------0----|
D|----5---5--|----4---4--|----2---2--|----2---2--|
A|--3--------|--2--------|--0--------|--0--------|
E|-----------|-----------|-----------|-----------|

Fig. 6B x1
e|-----------|-----------|-----|
B|-----------|-----------|-----|
G|------4----|------2----|--7--|
D|----5---5--|----4---4--|--7--|
A|--3--------|--2--------|--5--|
E|-----------|-----------|-----|

Fig. 7A x7 (under solo)
e|-----------|-----------|-----------|--------|
B|-----------|-----------|-----------|--------|
G|--------4--|--------4--|--------7--|--------|
D|--------4--|--------5--|--------7--|--------|
A|--------2--|--------3--|--------5--|--5--4--|
E|--0-0-0----|--0-0-0----|--0-0-0----|--3--2--|

Fig. 7B x1
e|-----------|-----------|---------|
B|-----------|-----------|---------|
G|--------4--|--------4--|--7---4--|
D|--------4--|--------5--|--7---4--|
A|--------2--|--------3--|--5---2--|
E|--0-0-0----|--0-0-0----|---------|

Fig. 6C x1
e|-----------|-----------|-----------|-----------|
B|-----------|-----------|-----------|-----------|
G|------4----|------2----|------0----|------0----|
D|----5---5--|----4---4--|----2---2--|----2---2--|
A|--3--------|--2--------|--0--------|--0--------|
E|-----------|-----------|-----------|-----------|

e|-----------|-----------|-----------|-----------|
B|-----------|-----------|-----------|-----------|
G|------4----|------2----|------7----|------7----|
D|----5---5--|----4---4--|----7---7--|----7---7--|
A|--3--------|--2--------|--5--------|--5--------|
E|-----------|-----------|-----------|-----------|

e|-----------|-----------|-----------|-----------|
B|-----------|-----------|-----------|-----------|
G|------4----|------2----|------0----|------0----|
D|----5---5--|----4---4--|----2---2--|----2---2--|
A|--3--------|--2--------|--0--------|--0--------|
E|-----------|-----------|-----------|-----------|

e|-----------|-----------|-----------|-----------|-----------|-----------|
B|-----------|-----------|-----------|-----------|-----------|-----------|
G|------4----|------2----|------7----|-----------|-----------|-----------|
D|----5---5--|----4---4--|----7---7--|------4----|------5----|------5----|
A|--3--------|--2--------|--5--------|----5---5--|----5---5--|----5---5--|
E|-----------|-----------|-----------|--2--------|--3--------|--7--------|

Repeat Fig. 5A x3
Repeat Fig. 5B x1
Repeat Fill 1 x1

Fig. 1B x
e|-----------|-----------|-----------|-----------|-----------|-----------|-----|
B|-----------|-----------|-----------|-----------|-----------|-----------|-----|
G|------0----|--------0--|------0----|-----------|------0----|--------0--|--0--|
D|--------4--|------2----|----0---2--|-----------|--------4--|------2----|--4--|
A|----2------|----3------|--4--------|----5---5--|----2------|----3------|--4--|
E|--0--------|--0--------|-----------|--3---2----|--0--------|--0--------|-----|

Repeat Fig. 1A x1

Fig. 1C x1
e|-----------|-----------|-----------|-----------|
B|-----------|-----------|-----------|-----------|
G|------0----|--------0--|------0----|-----------|
D|--------4--|------2----|----0---2--|-----------|
A|----2------|----3------|--4--------|----5---5--|
E|--0--------|--0--------|-----------|--3---2----|

e|-----------|-----------|-----------|-----------|
B|-----------|-----------|-----------|-----------|
G|------0----|--------0--|------0----|-----------|
D|--------4--|------2----|----0---2--|-----------|
A|----2------|----3------|--4--------|----5---5--|
E|--0--------|--0--------|-----------|--3---2----|

e|-----------|-----------|-----------|-----------|
B|-----------|-----------|-----------|-----------|
G|------0----|--------0--|------0----|-----------|
D|--------4--|------2----|----0---2--|-----------|
A|----2------|----3------|--4--------|----5---5--|
E|--0--------|--0--------|-----------|--3---2----|

e|-----------|
B|-----------|
G|------0----|
D|--------4--|
A|----2------|
E|--0--------|

End x1
e|------0----|------0----|------0----|------0----|--0--|
B|-----------|-----------|-----------|-----------|--0--|
G|----5---5--|----4---4--|----4---4--|----4---4--|--4--|
D|--7--------|--5--------|--4--------|--3--------|--2--|
A|-----------|-----------|-----------|-----------|-----|
E|-----------|-----------|-----------|-----------|-----|

Добавлено: 02.10.2013
Другие материалы по этой песне:
  • Аккорды и текст

Страница создана 02.10.2013
http://primanota.ru/metal-church/watch-the-children-play-chords.htm
Привет, Гость.
Предлагаем пройти революционный курс по гитаре.
Подарок от PrimaNota.Ru, забирай!