PrimaNota.ru - самый крупный в мире бесплатный архив песенных текстов, аккордов, табулатур и нот


Metal Church - Fake Healer - аккорды и текст, таба, бас-таба, видео

Регистрация Запомнить меня
Войти через:  Facebook Google Twitter Vk Yandex Mail.ru

Metal Church - Fake Healer - аккорды и текст, таба, бас-таба, видео

Печатать
Просмотров: 170
Уроки эстрадного вокала в Санкт-Петербурге
Авторы музыки: Craig Wells, Kurdt Vanderhoof
Авторы текста: Kurdt Vanderhoof
Fake Healer
Metal Church
		   |---------r------------------------r---------------------------------------
|---------e------------------------e---------------------------------------
|----7----s----7----7----7----7----s----7----7----7----10----9----7--------
|----7----t----7----7----7----7----t----7----7----7----10----9----7--------
|----5---------5----5----5----5---------5----5----5----8-----7----5--------
|--------------------------------------------------------------------------

-----r-------------------r------------------------r------------------------
-----e-------------------e------------------------e------------------------
5----s----5----5----7----s----7----7----7----7----s----7----7----7---------
5----t----5----5----7----t----7----7----7----7----t----7----7----7---------
3---------3----3----5---------5----5----5----5---------5----5----5---------
---------------------------------------------------------------------------

-----------------------r-------------------r---------r---------------------
-----------------------e-------------------e---------e---------------------
10----9----10----12----s----5----5----7----s----7----s----7----7----7------
10----9----10----12----t----5----5----7----t----7----t----7----7----7------
8-----7----8-----10---------3----3----5---------5---------5----5----5------
---------------------------------------------------------------------------

-----r----------------------------------------r-------------------r--------
-----e----------------------------------------e-------------------e--------
7----s----7----7----7----10----9----7----5----s----5----5----7----s--------
7----t----7----7----7----10----9----7----5----t----5----5----7----t--------
5---------5----5----5----8-----7----5----3---------3----3----5-------------
---------------------------------------------------------------------------

--------------------r------------------------------------------r-----------
--------------------e------------------------------------------e-----------
7----7----7----7----s----7----7----7----10----9----10----12----s----5------
7----7----7----7----t----7----7----7----10----9----10----12----t----5------
5----5----5----5---------5----5----5----8-----7----8-----10---------3------
---------------------------------------------------------------------------

----------||----r----|----r----||------------------------------------------
----------||----e----|----e----||------------------------------------------
5----7----||----s----|----s----||*----5-7------------------------5---------
5----7----||----t----|----t----||*----5-7------------------------5---------
3----5----||---------|---------||-----3/5----0----0----0----0----3---------
----------||---------|---------||------------------------------------------

---------------------------------------------------------------------------
---------------------------------------------------------------------------
-7-------------------------------------------------------------------------
-7-------------------------------------------------------------------------
/5----0----0----0----0----0----0----0----0----0----0----0----0----0--------
---------------------------------------------------------------------------

---------------------------------------------------------------------------
---------------------------------------------------------------------------
---------------5/7----7/9------------------------9-10----10-12-------------
---------------5-7----7-9------------------------9-10----10-12-------------
0----0----0----3-5----5-7----0----0----0----0----7/8-----8-/10----0--------
---------------------------------------------------------------------------

--------------------------------------------------------||----||-----------
--------------------------------------------------------||----||-----------
-------------------------------------------------------*||----||*----------
-------------------------------------------------------*||----||*----------
0----0----0----0----0----0----0----0----0----0----0-----||----||-----------
--------------------------------------------------------||----||-----------

---------------------------------------------------------------------------
---------------------------------------------------------------------------
-5-7-----------------------------------------------------------------------
-5-7-----------------------------------------------------------------------
-3/5----0----0----0----0----0----0----0----0----0----0----0----0----0------
---------------------------------------------------------------------------

---------------------------------------------------------------------------
---------------------------------------------------------------------------
---------------------------------------------------------------------------
---------------------------------------------------------------------------
0----0----0----0----0----0----0----0----0----0----0----0----0----0---------
---------------------------------------------------------------------------

-------------------------|---------|---------------------------------------
-------------------------|---------|---------------------------------------
-------------------------|----3----|---------------------------------------
-------------------------|----3----|----2----0-----------------------------
0----0----0----0----0----|----1----|--------------3----2----0--------------
-------------------------|---------|-----------------------------3---------


r----r-----||----||--------------------------------------------------------
e----e-----||----||--------------------------------------------------------
s----s----*||----||*----5-7------------------------5-7---------------------
t----t----*||----||*----5-7------------------------5-7---------------------
-----------||----||-----3/5----0----0----0----0----3/5----0----0----0------
-----------||----||--------------------------------------------------------

---------------------------------------------------------------------------
---------------------------------------------------------------------------
-----------------------------------------------------------------5---------
-----------------------------------------------------------------5---------
0----0----0----0----0----0----0----0----0----0----0----0----0----3---------
---------------------------------------------------------------------------

---------------------------------------------------------------------------
---------------------------------------------------------------------------
/7----7/9------------------------9-10----10-12-----------------------------
-7----7-9------------------------9-10----10-12-----------------------------
-5----5-7----0----0----0----0----7/8-----8-/10----0----0----0----0---------
---------------------------------------------------------------------------

-----------------------------------------||----||--------------------------
-----------------------------------------||----||--------------------------
----------------------------------------*||----||*-------------------------
----------------------------------------*||----||*-------------------------
0----0----0----0----0----0----0----0-----||----||--------------------------
-----------------------------------------||----||--------------------------

---------------------------------------------------------------------------
---------------------------------------------------------------------------
-5-7-----------------------------------------------------------------------
-5-7-----------------------------------------------------------------------
-3/5----0----0----0----0----0----0----0----0----0----0----0----0----0------
---------------------------------------------------------------------------

---------------------------------------------------------------------------
---------------------------------------------------------------------------
---------------------------------------------------------------------------
---------------------------------------------------------------------------
0----0----0----0----0----0----0----0----0----0----0----0----0----0---------
---------------------------------------------------------------------------

-------------------------|---------|---------------------------------------
-------------------------|---------|---------------------------------------
-------------------------|----3----|---------------------------------------
-------------------------|----3----|----2----0-----------------------------
0----0----0----0----0----|----1----|--------------3----2----0--------------
-------------------------|---------|-----------------------------3---------

r----r-----||----||--------------------------------------------------------
e----e-----||----||--------------------------------------------------------
s----s----*||----||*----5-7------------------------5-7---------------------
t----t----*||----||*----5-7------------------------5-7---------------------
-----------||----||-----3/5----0----0----0----0----3/5----0----0----0------
-----------||----||--------------------------------------------------------

---------------------------------------------------------------------------
---------------------------------------------------------------------------
-----------------------------------------------------------------5---------
-----------------------------------------------------------------5---------
0----0----0----0----0----0----0----0----0----0----0----0----0----3---------
---------------------------------------------------------------------------

---------------------------------------------------------------------------
---------------------------------------------------------------------------
/7----7/9------------------------9-10----10-12-----------------------------
-7----7-9------------------------9-10----10-12-----------------------------
-5----5-7----0----0----0----0----7/8-----8-/10----0----0----0----0---------
---------------------------------------------------------------------------

-----------------------------------------||----||--------------------------
-----------------------------------------||----||--------------------------
----------------------------------------*||----||*-------------------------
----------------------------------------*||----||*----2----0---------------
0----0----0----0----0----0----0----0-----||----||---------------3----------
-----------------------------------------||----||--------------------------

--------------------------||---------|---------|---------|-----------------
--------------------------||---------|---------|---------|-----------------
-------------------------*||----3----|----5----|----3----|-----------------
-------------------------*||----3----|----5----|----3----|-----------------
2----0--------------------||----1----|----3----|----1----|-----------------
----------3----1----0-----||---------|---------|---------|----0----0-------

----------|----------------------------------------------------------------
----------|----------------------------------------------------------------
----------|----------------------------------------------------------------
0---------|---------3----3----3----3----3----3----3----3----3----3---------
0---------|----0----1----1----1----1----1----1----1----1----1----1---------
0----0----|----------------------------------------------------------------

---------------------------------------------------------------------------
---------------------------------------------------------------------------
---------------------------------------------------------------------------
3----3----3----3----3----3----3----3----3----3----3----3----3----3---------
1----1----1----1----1----1----1----1----1----1----1----1----1----1---------
---------------------------------------------------------------------------


---------------------------------------------------------------------------
---------------------------------------------------------------------------
---------------------------------------------------------------------------
3----3----3----3----3----3----3----3----3----3----3----3----3----3---------
1----1----1----1----1----1----1----1----1----1----1----1----1----1---------
---------------------------------------------------------------------------

---------------------------------------------------------------------------
---------------------------------------------------------------------------
---------------------------------------------------------------------------
3----3----3----3----3----3----3----3----3----3----3----3----3----3---------
1----1----1----1----1----1----1----1----1----1----1----1----1----1---------
---------------------------------------------------------------------------

-------------------------------------------------------|----||-------------
-------------------------------------------------------|----||-------------
-------------------------------------------------------|----||*------------
3----3----3----3----3----3----3----3----3----3----3----|----||*------------
1----1----1----1----1----1----1----1----1----1----1----|----||-----0-------
-------------------------------------------------------|----||-------------

-----------------------------------r--------------------||----||-----------
-----------------------------------e--------------------||----||-----------
-----------------------------------s--------------3----*||----||*----------
-----------------------------------t----3----3----3----*||----||*----------
0----0----0----0----0----0----0---------1----1----1-----||----||-----------
--------------------------------------------------------||----||-----------

---------------------------------------------------------------------------
---------------------------------------------------------------------------
---------------------------------------------------------------------------
3----3----3----3----4----4----4----4----2----2----2----2----3----3---------
1----1----1----1----2----2----2----2----0----0----0----0----1----1---------
---------------------------------------------------------------------------

-----------||----||---------------------------------------------r----------
-----------||----||---------------------------------------------e----------
----------*||----||*--------------------------------------------s----------
3----3----*||----||*--------------------------------------------t----------
1----1-----||----||-----0----0----0----0----0----0----0----0---------------
-----------||----||--------------------------------------------------------

----------------||----||---------------------------------------------------
----------------||----||---------------------------------------------------
----------3----*||----||*--------------------------------------------------
3----3----3----*||----||*----3----3----3----3----4----4----4----4----------
1----1----1-----||----||-----1----1----1----1----2----2----2----2----------
----------------||----||---------------------------------------------------

-----------------------------------------||----||--------------------------
-----------------------------------------||----||--------------------------
----------------------------------------*||----||*----5-7------------------
2----2----2----2----3----3----3----3----*||----||*----5-7------------------
0----0----0----0----1----1----1----1-----||----||-----3/5----0----0--------
-----------------------------------------||----||--------------------------

---------------------------------------------------------------------------
---------------------------------------------------------------------------
----------5-7--------------------------------------------------------------
----------5-7--------------------------------------------------------------
0----0----3/5----0----0----0----0----0----0----0----0----0----0----0-------
---------------------------------------------------------------------------

---------------------------------------------------------------------------
---------------------------------------------------------------------------
-------------------------5/7----7/9------------------------9-10----10------
-------------------------5-7----7-9------------------------9-10----10------
0----0----0----0----0----3-5----5-7----0----0----0----0----7/8-----8-------
---------------------------------------------------------------------------

---------------------------------------------------------------------------
---------------------------------------------------------------------------
-12------------------------------------------------------------------------
-12------------------------------------------------------------------------
/10----0----0----0----0----0----0----0----0----0----0----0----0------------
---------------------------------------------------------------------------

-||----r----|----||--------------------------------------------------------
-||----e----|----||--------------------------------------------------------
*||----s----|----||*-----5-7-----------------------------------------------
*||----t----|----||*-----5-7-----------------------------------------------
-||---------|----||------3/5----0----0----0----0----0----0----0----0-------
-||---------|----||--------------------------------------------------------

---------------------------------------------------------------------------
---------------------------------------------------------------------------
---------------------------------------------------------------------------
---------------------------------------------------------------------------
0----0----0----0----0----0----0----0----0----0----0----0----0----0---------
---------------------------------------------------------------------------

--------------------------------------------------|---------|--------------
--------------------------------------------------|---------|--------------
--------------------------------------------------|----3----|--------------
--------------------------------------------------|----3----|----2---------
0----0----0----0----0----0----0----0----0----0----|----1----|--------------
--------------------------------------------------|---------|--------------

-------------------------r----r-----||----||-------------------------------
-------------------------e----e-----||----||-------------------------------
-------------------------s----s----*||----||*----5-7-----------------------
0------------------------t----t----*||----||*----5-7-----------------------
-----3----2----0--------------------||----||-----3/5----0----0----0--------
--------------------3---------------||----||-------------------------------

---------------------------------------------------------------------------
---------------------------------------------------------------------------
-----5-7-------------------------------------------------------------------
-----5-7-------------------------------------------------------------------
0----3/5----0----0----0----0----0----0----0----0----0----0----0----0-------
---------------------------------------------------------------------------

---------------------------------------------------------------------------
---------------------------------------------------------------------------
--------------------5/7----7/9------------------------9-10----10-12--------
--------------------5-7----7-9------------------------9-10----10-12--------
0----0----0----0----3-5----5-7----0----0----0----0----7/8-----8-/10--------
---------------------------------------------------------------------------

-------------------------------------------------------------||------------
-------------------------------------------------------------||------------
------------------------------------------------------------*||------------
------------------------------------------------------------*||------------
0----0----0----0----0----0----0----0----0----0----0----0-----||------------
-------------------------------------------------------------||------------

||----------------------------------------------||---------|---------------
||----------------------------------------------||---------|---------------
||*--------------------------------------------*||----7----|----7----------
||*--------------------------------------------*||----7----|----7----------
||-----0----0----0----0----0----0----0----0-----||----5----|----5----------
||----------------------------------------------||---------|---------------

r------------------------r----------------------------------------r--------
e------------------------e----------------------------------------e--------
s----7----7----7----7----s----7----7----7----10----9----7----5----s--------
t----7----7----7----7----t----7----7----7----10----9----7----5----t--------
-----5----5----5----5---------5----5----5----8-----7----5----3-------------
---------------------------------------------------------------------------

---------------r------------------------r----------------------------------
---------------e------------------------e----------------------------------
5----5----7----s----7----7----7----7----s----7----7----7----10----9--------
5----5----7----t----7----7----7----7----t----7----7----7----10----9--------
3----3----5---------5----5----5----5---------5----5----5----8-----7--------
---------------------------------------------------------------------------

------------r-------------------r---------r------------------------r-------
------------e-------------------e---------e------------------------e-------
10----12----s----5----5----7----s----7----s----7----7----7----7----s-------
10----12----t----5----5----7----t----7----t----7----7----7----7----t-------
8-----10---------3----3----5---------5---------5----5----5----5------------
---------------------------------------------------------------------------

------------------------------------r-------------------r------------------
------------------------------------e-------------------e------------------
7----7----7----10----9----7----5----s----5----5----7----s----7----7--------
7----7----7----10----9----7----5----t----5----5----7----t----7----7--------
5----5----5----8-----7----5----3---------3----3----5---------5----5--------
---------------------------------------------------------------------------

----------r------------------------------------------r---------------------
----------e------------------------------------------e---------------------
7----7----s----7----7----7----10----9----10----12----s----5----5----7------
7----7----t----7----7----7----10----9----10----12----t----5----5----7------
5----5---------5----5----5----8-----7----8-----10---------3----3----5------
---------------------------------------------------------------------------

Don't know how right this is but it sound good!     
Добавлено: 16.06.2013
Другие материалы по этой песне:

Страница создана 07.03.2012
http://primanota.ru/metal-church/fake-healer-chords.htm
Привет, Гость.
Предлагаем пройти революционный курс по гитаре.
Подарок от PrimaNota.Ru, забирай!