PrimaNota.ru - самый крупный в мире бесплатный архив песенных текстов, аккордов, табулатур и нот


Melvins - Queen - аккорды и текст, таба, видео

Регистрация Запомнить меня
Войти через:  Facebook Google Twitter Vk Yandex Mail.ru

Melvins - Queen - аккорды и текст, таба, видео

Печатать
Просмотров: 172
Queen
Melvins
		   Queen           by the Melvins
                from the album "Stoner Witch"
                words and music by Buzz Osbourne and Dale Crover
                tabbed by Tom Mallon

This is as much of the song as I could figure out.There are a few gaps
here and there.

Standard Tuning
Riff 1/Intro
         . .      .    . ~~~
E |---------------------------------|
B |---------------------------------|
G |.-------------------------------.|
D |.-2-----------------------------.|
A |--2--------4-4-2-4----2-----2-4--|
E |--0---0-0--0-0-0-0--0-3-----3-3--|

For verse, just hit a palm-muted E then play Riff 1.

Riff 2/Chorus
E ----------------------------------------------------
B ----------------------------------------------------
G -------------------------------------9^9^9^9^9^9^r--
D -5-5--2-5-5-5-5-5---5-5-5-/-8-8-8-7--9^9^9^9^9^9^r--
A -5-5--2-5-5-5-5-5---5-5-5-/-8-8-8-7--7--------------
E -3-3--0-3-3-3-3-3-0-3-3-3-/-6-6-6-5-----------------
      . . . . . . . . . . . .          . . . . . . . .
E -----------------------------------------------------
B -----------------------------10-9--------------------
G -----------------------------10-9--------------------
D -2--2-2-4-4---5-5---7-7-7-7--10-9----2-2-4-4-4-5-5-5-
A -2--2-2-4-4---5-5---7-7-7-7--8--7----2-2-4-4-4-5-5-5-
E -0--0-0-2-2-0-3-3-0-5-5-5-5----------0-0-2-2-2-3-3-3-
                   . . . . . . . .
E --------------------------------------------------------------------
B --------------------------------------------------------------------
G --------------------------------------------------------------------
D -7-7----------2--2-2-4-4-4-5-5-5-7--8--3---------------------2------
A -7-7----------2--2-2-4-4-4-5-5-5-7--8--3---------------------2------
E -5-5--0-1-0-1-0--0-0-2-2-2-3-3-3-5--6--1-0-1-0-1-4---0-1-0-1-0------

For that bridge, I mess around in E and usually bend the shit out of an
E5 at the seventh fret. That's all I can tell you for that one.

 .       palm mute
 ^       bend
 /       slide
 ~       vibrato     
Добавлено: 30.08.2013
Другие материалы по этой песне:
  • Аккорды и текст

Страница создана 24.03.2012
http://primanota.ru/melvins/queen-chords.htm
Привет, Гость.
Предлагаем пройти революционный курс по гитаре.
Подарок от PrimaNota.Ru, забирай!